Cifra Club

Asgore

Undertale

Tablatura: Principal (guitarra)
Tom: D
E|--------0-------------------|----------------------------|
B|--1-----------3-------------|--0-----3-----1-------------|
G|--2--2--0--0--2-------------|--0--0--0--0--0-------------|
D|--------------3-------------|--0-------------------------|
A|----------------------------|--------------3-------------|
F|----------------------------|----------------------------|


----------------------------|----------------------------| 
--------1-----0-------------|----------------------------| 
--2-----2--2--0-------------|--0--0--2--2----------------| 
--3--3-----------3--0--2----|--0-----0--2--2-------------| 
----------------------------|-----3--------0-------------| 
----------------------------|----------------------------| 


--------0-------------------|--3-----------0-------------| 
--1-----------3-------------|--0--0--3-----0-------------| 
--2--2--0--0--2-------------|--------0--0--0-------------| 
--------------3-------------|----------------------------| 
----------------------------|----------------------------| 
----------------------------|----------------------------| 


--0-----0--3--5--------8----| 
-----3----------------------| 
----------------------------| 
--2-------------------------| 
--------2-----0-------------| 
--------------------x-------| 


--7h-8h-7-----5-----------------------7-----------5-----------------------------| 
--------------------------8-----------------------------------------------------| 
--0-----------------------------------------------------------------------------| 
--------------------------0-----------------------------------------------------| 
--------------------------------------------------0-----------------------------| 
--------------------------------------------------------------------------------| 


--------------------|--------------0-----------------------------0-------| 
--------------------|--1-----------------------3-----------1--3----------| 
--------------------|----------------------------------------------------| 
--------------------|--------------------------------3-------------------| 
--------------------|----------------------------------------------------| 
--------------------|--------------------------0-------------------------| 


--------------------------0-------------------------| 
-----------0--------1-----1-------------------------| 
--2--------2--------------2-----------------2-------| 
--3--------3--------------------------3-------------| 
--------------------------------3-------------------| 
--0-----------x-----------0-------------------------| 


--------0--------------0----| 
--1-----------3-------------| 
--------------------2-------| 
-----------------2----------| 
--------------0-------------| 
----------------------------| 


--------------------3-----0-------------------------|--0--1----| 
-----------0--------------1-----------------1-------|----------| 
--2--------2--------------------------2-------------|----------| 
--------------------------------2-------------------|----------| 
--0-----------------------0-------------------------|--0--2----| 
--------------x-------------------------------------|----------| 


--3-----------------5-----------------------0-------| 
--------------------------1--------3----------------| 
--------0-----------0-------------------------------| 
----------------------------------------------------| 
--3-----------3-----------3-------------------------| 
----------------------------------------------------| 


--3-----------------5--------------7----------------| 
--------------------------1-----------------8-------| 
----------------------------------------------------| 
--------0-----------0-------------------------------| 
--2-----------2-------------------------------------| 
--------------------------------------x-------------| 


--8-------------------------------------------------|----------------| 
--------------------5-----------------------3--1----|--3--------0----| 
--------------5-----------5-------------------------|--------0-------| 
--------5-----------------------5-------------------|-----0----------| 
--0-------------------------------------------------|----------------| 
--------------------------------------x-------------|--2-------------| 


--------------0-----------------------------0-------| 
--1-----------1-----------3-----------1--3----------| 
--2-----------------------2-------------------------| 
--------------------------------3-------------------| 
--------------------x-------------------------------| 
--------------------x-----0-----------0-------------| 


--------------------------0-------------------------| 
-----------0--------1-----1-------------------------| 
--2-----------------------2-----------------2-------| 
--3-----------------------------------3-------------| 
--------------x-------------------------------------| 
--------0-----x-----0-----------0-------------------| 


--------0--------------0----| 
--1-----1-----3-------------| 
--2-----0-----2-----2-------| 
-----------------2----------| 
-----------x--0-------------| 
--0-----2--x----------------| 


--------------------3-----0-----------------0-------|--0--1----| 
-----------0--------------1-------------------------|--1--0----| 
--2--------2--------------2-------------------------|--2--0----| 
--------------------------------------2-------------|----------| 
--------0-----x-----0-----------0-------------------|--0--2----| 
--------------x-------------------------------------|----------| 

  ^ 
--3-----------------5--------------0--------1-------| 
--3-----------------------1--------1----------------| 
--0-----------0-------------------------------------| 
--2-----2-------------------------------------------| 
--3-----------------------3-------------------------| 
--------------------------------------x-------------| 

  ^ 
--3-----------------5--------------7----------------| 
--3-----------------------1-----------------8-------| 
--0-----------0-----------0-------------------------| 
--0-----0-------------------------------------------| 
--2-----------------------2-------------------------| 
--------------------------------------x-------------| 


--8-------------------------------------------------| 
--------------------5-----------------------3--1----| 
--------------5-----------5-------------------------| 
--------5-----------------------5-------------------| 
--0-------------------------------------------------| 
--------------------------------------x-------------| 


----------------------------| 
--0--------0--1-----0-------| 
--------0-----2-----0-------| 
-----0--------2-----0-------| 
----------------------------| 
--2-------------------------| 


-----------------------------------3--0-------------| 
-----1--0--1-----------------0--1-------------------| 
--2-----------2-------------------------------------| 
----------------------------------------------------| 
----------------------------------------------------| 
--0-----------------------0-----------------2-------| 


-----------------------------------3--0-------------| 
-----1--0--1-----------------0--1-------------------| 
--2-----------2-------------------------------------| 
----------------------------------------------------| 
----------------------------------------------------| 
--0-----------------------0-----------------2-------| 


-----------------------------------3--0-------------| 
-----1--0--1-----------------0--1-------------------| 
--2-----------2-------------------------------------| 
----------------------------------------------------| 
--0-----------------------0-------------------------| 
--------------------------------------------2-------| 


----------------------------------------------------| 
-----------3--------1-----0-----------------0-------| 
--0--------------------------2-----0----------------| 
----------------------------------------------------| 
----------------------------------------------------| 
--------------------------2-------------------------| 


-----------------------------------3--0-------------| 
-----1--0--1-----------------0--1-------------------| 
--2-----------2-------------------------------------| 
----------------------------------------------------| 
----------------------------------------------------| 
--0-----------------------0-----------------2-------| 


-----------------------------------3--0-------------| 
-----1--0--1-----------------0--1-------------------| 
--2-----------2-------------------------------------| 
----------------------------------------------------| 
----------------------------------------------------| 
--0-----------------------0-----------------2-------| 


-----------------------------------3--0-------------| 
-----1--0--1-----------------0--1-------------------| 
--2-----------2-------------------------------------| 
----------------------------------------------------| 
--0-----------------------0-------------------------| 
--------------------------------------------2-------| 


----------------------------------------------------|| 
-----------3--------1-----0-----------------0-------|| 
--0--------------------------2-----0----------------|| 
----------------------------------------------------|| 
----------------------------------------------------|| 
----------------------------------------------------|| 


----------------------------------3--0-------------| 
----1--0--1-----------------0--1-------------------| 
o2-----------2--------2----------------------------| 
o--------------------------------------------------| 
---------------------------------------------------| 
-0--------0-----------0--------0-----0-----2-------| 


-----------------------------------3--0-------------| 
-----1--0--1-----------------0--1-------------------| 
--2-----------2--------2----------------------------| 
----------------------------------------------------| 
----------------------------------------------------| 
--0--------0-----------0--------0-----0-----2-------| 


-----------------------------------3--0-------------| 
-----1--0--1-----------------0--1-------------------| 
--2-----------2--------2----------------------------| 
----------------------------------------------------| 
--0--------0-----------0--------0-----0-------------| 
--------------------------------------------2-------| 


---------------------------------------------------||| 
-----------3--------1-----0-----------------0------||| 
--0--------------------------2-----0--------------o||| 
-----------0--------0--------------0--------0-----o||| 
---------------------------------------------------||| 
--2-----------------------2------------------------||| 


----------------------------------3--0-------------| 
----1--0--1-----------------0--1-------------------| 
o2-----------2--------2----------------------------| 
o--------------------------------------------------| 
---------------------------------------------------| 
-0-----0-----0-----0-----0-----0-----0-----2-------| 


-----------------------------------3--0-------------| 
-----1--0--1-----------------0--1-------------------| 
--2-----------2--------2----------------------------| 
----------------------------------------------------| 
----------------------------------------------------| 
--0-----0-----0-----0-----0-----0-----0-----2-------| 


-----------------------------------3--0-------------| 
-----1--0--1-----------------0--1-------------------| 
--2-----------2--------2----------------------------| 
----------------------------------------------------| 
--0-----0-----0-----0-----0-----0-----0-------------| 
--------------------------------------------2-------| 


---------------------------------------------------|| 
-----------3--------1-----0-----------------0------|| 
--0--------0--------0--------2-----0--------------o|| 
--------0--------0-----------------0--------0-----o|| 
---------------------------------------------------|| 
--2-----------------------2------------------------|| 


----------------------------------------------------| 
----------------------------------------------------| 
--2-----------------2-----------------------0-------| 
-----------2-----------------------2--------2-------| 
--0-----------------------0-------------------------| 
----------------------------------------------------| 


----------------------------------------------------| 
--------------------1-----3--1-----0--------1-------| 
--2-------------------------------------------------| 
-----------0--------0--------------0--------0-------| 
----------------------------------------------------| 
--2-----------------------2-------------------------| 


----------------------------------------------------| 
--------------------------------------------1-------| 
--2--------------------------------0----------------| 
--------------------3-----2--2----------------------| 
-----------3--------------------------------3-------| 
--0-----------------------0-----------0-------------| 
             
           + 
-----------12-------0---------------------------------------|| 
--0--------12----------------------1--------3---------------|| 
--------------------------2---------------------------------|| 
------------------------------------------------------------|| 
--7-----7--------7--------0---------------------------------|| 
-----------------------------------2--------0---------------|| 

                                     ^ 
-0-----------------------------0-------------------| 
-1-----------------3-----3-----------1-----3-------| 
o2--------2--------2-----------------2-----2-------| 
o------3--------2----------------------------------| 
---------------------------------------------------| 
-0-----------x-----------0-----------x-------------| 


--0-------------------------------------------------| 
--------------------3-----1-----3--0----------------| 
-----------0--------0-----------------------0-------| 
--------0--------0--------------------------0-------| 
----------------------------------------------------| 
--2-----------x-----------2-----------x-------------| 

        ^ 
--------0--------0--3-------| 
-----3--1--1--3--0--0--3----| 
--2--2-----2--0--0--0--0----| 
--2-----------0-------------| 
--0-----------2-------------| 
--------x-----------x-------| 


--0------------------------------------------------|| 
--1-----------------3-----1-----3--0---------------|| 
-----------0--------------------------------0-----o|| 
--------2-----------------------0-----------------o|| 
--3-----------------3------------------------------|| 
--------------x-----------2-----------x-----2------|| 


-----3--5--3-----5--8-----7--5--------------7-------|| 
--5--------------------------------8----------------|| 
--------------------------0-------------------------|| 
----------------------------------------------------|| 
--0-------------------------------------------------|| 
----------------------------------------------------|| 


-8--7--5-----5-----0-----2-------------------------| 
----------8-----------------------3-----------0----| 
o------------------------------------------2-------| 
o------------------------0-------------------------| 
-0-------------------------------------------------| 
---------------------------------------------------| 


--------------------3-----0------------------------|| 
--1--------3---------------------------------------|| 
--------------------------------------------------o|| 
--------------------------------------------------o|| 
--------------------------0------------------------|| 
--0--------------2---------------------------------|| 


----------------------------------------------------| 
--1--------0--------0-------------------------------| 
--------------------------2-------------------------| 
----------------------------------------------------| 
--------------------------0-------------------------| 
--0--------------2----------------------------------| 


----------------------------------------------------| 
--1--0----------------------------------------------| 
--------2--0--2-------------------------------------| 
--------------------2-----4--------0----------------| 
--0-----------------------5-----------------0--2----| 
----------------------------------------------------| 


----------------------------------------------------| 
----------------------------------------------------| 
--------------------0-------------------------------| 
-----------0--------------2-------------------------| 
--3-----------------------0-------------------------| 
--0--------------2----------------------------------| 


----------------------------------------------------| 
--1--0-----------------------------------------0----| 
--------2--0--2-----------------------------2-------| 
--------------------2-----4--------0----------------| 
--0-----------------------5-------------------------| 
----------------------------------------------------| 


----------------------------------------------------|| 
--1--------0--------0-------------------------------|| 
--------------------------2-------------------------|| 
----------------------------------------------------|| 
--------------------------0-------------------------|| 
--0--------------2----------------------------------|| 


---------------------------------------------------| 
-3--1----------------------------------------------| 
o------3--2--3--2--0--3--2--------------------0----| 
o---------------------------------2--------2-------| 
-------------------------0-----0--------0----------| 
-0-----0-----0-----0-------------------------------| 


-----------------1--0-----------------0-----0--2----| 
--3--1-----------------3--1-----3-------------------| 
--------3--2----------------------------------------| 
----------------------------------------------------| 
-----------------------------0-----2-----3----------| 
--0-----0-----0-----0-------------------------------| 


--3--2--0-----0-----0--2--0-------------------------| 
-----------3-----3-----------------------------0----| 
--------2-----------2--------------2--------2-------| 
--0-----------0-------------------------------------| 
--------------------------0-----0--------0----------| 
----------------------------------------------------| 


--------------------1-----0------------------------|| 
--1--------3--------------------0------------------|| 
--------------------------------------1-----------o|| 
--------2--------2--------2-----------------2-----o|| 
--3-----------------------------2-----2-----2------|| 
---------------------------------------------------|| 


--3--2--0-----0-----0--2--0-------------------------|| 
-----------3-----3-----------------------------0----|| 
--------2-----------2--------------2--------2-------|| 
--0-----------0-------------------------------------|| 
--------------------------0-----0--------0----------|| 
----------------------------------------------------|| 


---------------------------------------------------| 
-1--------0-----------------------------------0----| 
o2--------2--------0-----2-----------------2-------| 
o3--------------3--------3--------3----------------| 
-------3-------------------------------------------| 
-0-----------------------0-----0--------0----------| 


---------------------------------------------------|| 
--1--------0-----------------------------------0---|| 
--0--------2--------0-----2-----------------2-----o|| 
--------0--------0--------0--------0--------------o|| 
---------------------------------------------------|| 
--2-----------------------2-----2--------2---------|| 


----------------------------------------------------| 
--1--------0----------------------------------------| 
--0--------2--------0-----2-----------------0-------| 
--------0--------0--------0--------0----------------| 
----------------------------------------------------| 
--2-----------------------2-----2--------2----------| 


----------------------------------------------------| 
----------------------------------------------------| 
--2-----------------0-------------------------------| 
--2--------2--------2-----4--------0--------0-------| 
--0-----0--------0--------0-----0--------0----------| 
----------------------------------------------------| 


----------------------------------------------------|----------------|| 
----------------------------------------------------|----------------|| 
--2-----------------0-------------------------------|--2-------------|| 
--2--------2--------2-----4--------0--------0-------|--2-------------|| 
--0-----0--------0--------0-----0--------0----------|--0-------------|| 
----------------------------------------------------|----------------||
reproducciones 482
Acordes para:
    Composição: Dulcetrefrain Colaboración y revision:
    • Gabriel Borao

    0 comentarios

    mostrar más comentarios

    ¿Conseguiste tocar?

    1 tocaron 3 aún no

    ¡Graba un vídeo tocando Asgore y envianoslo!

    00:00 / 00:00
    outros vídeos desta música
    repetir qualidade Automático
    Outros vídeos desta música
    00:00 / 00:00
    Automático
    OK