Cifra Club

Fallen Down

Undertale

Tablatura: Principal (guitarra)
Tom: D
Melodia: 

E|-14----14----14----14----14----14--------------------12-11-12-14-11-----
B|----14----14----14----14----14----14-12----14--10-12----------------12--
G|----------------------------------------14------------------------------
D|------------------------------------------------------------------------
A|------------------------------------------------------------------------
E|------------------------------------------------------------------------

E|-14----14----14----14----14----15---14----14-------14-------------
B|----12----12----12----11----11---------15----15-17----17--15--14--
G|------------------------------------------------------------------
D|------------------------------------------------------------------
A|------------------------------------------------------------------
E|------------------------------------------------------------------

VARIAÇÃO da melodia (4ª vez tocando-a):

E|-14----14----14----14----14----14--------------------12-11-12-14-11-----
B|----14----14----14----14----14----14-12----14--10-12----------------12--
G|----------------------------------------14------------------------------
D|------------------------------------------------------------------------
A|------------------------------------------------------------------------
E|------------------------------------------------------------------------

E|-14----14----14----14----14----15---14----14-------14-----14------
B|----12----12----12----11----11---------15----15-17----14------14--
G|------------------------------------------------------------------
D|------------------------------------------------------------------
A|------------------------------------------------------------------
E|------------------------------------------------------------------



Dedilhado: (tocar 3x. Na 4ª vez, toquem-na com uma pequena VARIAÇÃO no final.)

    D                       B
E|-----5---5-------5---5-------2---2-------2---2----
B|---7---7---7---7---7---7---4---4---4---4---4---4--
G|-7-----------7-----------4-----------4------------
D|--------------------------------------------------
A|--------------------------------------------------
E|--------------------------------------------------

    G          Gm7          D          D7M
E|-----------------------------5---5-------5---5----
B|-----3---3-------3---3-----7---7---7---5---5---5--
G|---4---4---4---3---3---3-7-----------6------------
D|-5-----------5------------------------------------
A|--------------------------------------------------
E|--------------------------------------------------

VARIAÇÃO do dedilhado (4ª vez tocando-a)

    D                       B
E|-----5---5-------5---5-------2---2-------2---2----
B|---7---7---7---7---7---7---4---4---4---4---4---4--
G|-7-----------7-----------4-----------4------------
D|--------------------------------------------------
A|--------------------------------------------------
E|--------------------------------------------------

    G          Gm7          D           D
E|-----------------------------5---5-------5---5----
B|-----3---3-------3---3-----7---7---7---7---7---7--
G|---4---4---4---3---3---3-7-----------7------------
D|-5-----------5------------------------------------
A|--------------------------------------------------
E|--------------------------------------------------



Acordes:

      D       B       G      Gm7     D7M
E|-------|-------|---3---|---3---|-------|
B|---7---|---4---|---3---|---3---|---7---|
G|---7---|---4---|---4---|---3---|---6---|
D|---7---|---4---|---5---|---3---|---7---|
A|---5---|---2---|---5---|---5---|---5---|
E|-------|-------|---3---|---3---|-------|
reproducciones 320
Acordes para:
    Composição: Toby Fox Colaboración y revision:
    • Leo OORguitah

    0 comentarios

    mostrar más comentarios

    ¿Conseguiste tocar?

    3 tocaron 2 aún no

    ¡Graba un vídeo tocando Fallen Down y envianoslo!

    00:00 / 00:00
    outros vídeos desta música
    repetir qualidade Automático
    Outros vídeos desta música
    00:00 / 00:00
    Automático
    OK