Cifra Club

Hopes And Dreams

Undertale

Tablatura: Principal (guitarra)
Tom: G
E|-/6-5-----------|
B|------6---------|
G|--------7-5-3---|
D|--------------3-|
A|----------------|
E|----------------|

E|-----13------|------13------|---------13-|--/15--13--------|
B|---------13--|--------------|------------|-----------13----|
G|-------------|--15----------|-----15-----|--------------15-|
D|-15----------|----------15--|-15---------|-----------------|
A|-------------|--------------|------------|-----------------|
E|-------------|--------------|------------|-----------------|

E|-----------|----------|-------------------------|
B|-----------|----------|-------------------------|
G|-10--------|----------|-----------8-7-8--7------|
D|----8-10-8-|---8-10-8-|------8-10----------10-8-|
A|-----------|-8--------|-8--8--------------------|
E|-----------|----------|-------------------------|

E|----------------------------------------------------|
B|-6--------------------------------------------------|
G|----3-5-3----3-5---7p5\3-------3-5-8-7--8p7\5--3----|
D|-----------3----------------3--------------------3--|
A|----------------------------------------------------|
E|----------------------------------------------------|

E|-------------------------------------6-------|
B|-----------------------------------6----8--6-|
G|-3--3-5-7-3----5--5-7-5-3---7--7-8-----------|
D|---------------------------------------------|
A|---------------------------------------------|
E|---------------------------------------------|

E|-----------------------------------------------------|
B|-7---------------------------------------------------|
G|----4-6-4----4-6---8p6\4-------4-6/9--8--9p8\6--4----|
D|-----------4----------------4---------------------4--|
A|-----------------------------------------------------|
E|-----------------------------------------------------|

E|----------------------------------/7-6-----------------|
B|-7-------------------------/7----------7---------------|
G|----4-6-4----4-6---8p6\4-------4----------8-6-44-6-4---|
D|-----------4-----------------------------------------4-|
A|-------------------------------------------------------|
E|-------------------------------------------------------|

E|-15--151515-15-13-12-13-15--20-15-----------|-15--151515-15-13-12-13-15----------------|
B|--------------------------------------------|------------------------------------------|
G|--------------------------------------------|------------------------------------------|
D|-----------------------------------12-14----|---------------------------12-9-10--------|
A|-----------------------------------------10-|-----------------------------------/6-4---|
E|--------------------------------------------|----------------------------------------2-|

E|-15--151515-15-13-12-13-15--20-15-----------|-15--151515-15-13-12-13-15-20-19-20-------|
B|--------------------------------------------|------------------------------------------|
G|--------------------------------------------|------------------------------------------|
D|-----------------------------------12-14----|------------------------------------------|
A|-----------------------------------------10-|-----------------------------------/6-4---|
E|--------------------------------------------|----------------------------------------2-|

E|-15--151515-15-13-12-13-15--20-15-----------|-15--151515-15-13-12-13-15-20-19-20-------|
B|--------------------------------------------|------------------------------------------|
G|--------------------------------------------|------------------------------------------|
D|-----------------------------------12-14----|------------------------------------------|
A|-----------------------------------------10-|-----------------------------------/6-4---|
E|--------------------------------------------|----------------------------------------2-|

E|---------------------------------------------|---------|
B|----------------------------------------7-9--|---------|
G|-/8--8-8-8---8-6-4------8--8-8-8----6-8------|-/8-4-6--|
D|-------------------4-------------------------|---------|
A|---------------------------------------------|---------|
E|---------------------------------------------|---------|

E|---------------------------------|
B|----7---------7-9--7-------------|
G|-------6----7--------8-6--h8p6\4-|
D|-4-------------------------------|
A|---------------------------------|
E|---------------------------------|

E|-----------------------------------------------|
B|-----------------------------------------------|
G|-4--4-6/8-4----6--6-8-6-h8p6\4----7-6---6-4--6-|
D|-----------------------------------------------|
A|-----------------------------------------------|
E|-----------------------------------------------|

E|-----------------------------------------------------|
B|-----------------------------------------------------|
G|---4-6----4-6----4-6----4-6-/13--8-6-4-6-h8p6\4------|
D|-4------4------5------5--------------------------4-6-|
A|-----------------------------------------------------|
E|-----------------------------------------------------|

E|-----------------------------------------------|
B|-----------------------------------------------|
G|-4--4-6/8-4----6--6-8-6-h8p6\4----7-6---6-4--6-|
D|-----------------------------------------------|
A|-----------------------------------------------|
E|-----------------------------------------------|

E|-----------------------------------------------------|
B|-7---------------------------------------------------|
G|----4-6-4----4-6---8p6\4-------4-6/9--8--9p8\6--4----|
D|-----------4----------------4---------------------4--|
A|-----------------------------------------------------|
E|-----------------------------------------------------|

E|----------------------------------/7-6-----------------|
B|-7-------------------------/7----------7---------------|
G|----4-6-4----4-6---8p6\4-------4----------8-6-44-6-4---|
D|-----------4-----------------------------------------4-|
A|-------------------------------------------------------|
E|-------------------------------------------------------|
reproducciones 117
Acordes para:
    Colaboración y revision:
    • Ojiroy Yotakan

    0 comentarios

    mostrar más comentarios

    ¿Conseguiste tocar?

    0 tocaron 4 aún no

    ¡Graba un vídeo tocando Hopes And Dreams y envianoslo!

    00:00 / 00:00
    outros vídeos desta música
    repetir qualidade Automático
    Outros vídeos desta música
    00:00 / 00:00
    Automático
    OK