Cifra Club

Megalovania

Undertale

Cifrado: Principal (guitarra y guitarra eléctrica)
tono: Dm
[Intro]

E|------------------------|------------------------|
B|-----3------------------|-----3------------------|
G|-------2--1--0---------0|-------2--1--0---------0|
D|-0-0------------3--0-3--|----------------3--0-3--|
A|------------------------|-3-3--------------------|
E|------------------------|------------------------|

E|------------------------|------------------------|
B|-----3------------------|-----3------------------|
G|-------2--1--0---------0|-------2--1--0---------0|
D|----------------3--0-3--|----------------3--0-3--|
A|-2-2--------------------|-1-1--------------------|
E|------------------------|------------------------|

E|------------------------|------------------------|
B|-----3------------------|-----3------------------|
G|-------2--1--0---------0|-------2--1--0---------0|
D|-0-0------------3--0-3--|----------------3--0-3--|
A|------------------------|-3-3--------------------|
E|------------------------|------------------------|

E|------------------------|------------------------|
B|-----3------------------|-----3------------------|
G|-------2--1--0---------0|-------2--1--0---------0|
D|----------------3--0-3--|----------------3--0-3--|
A|-2-2--------------------|-1-1--------------------|
E|------------------------|------------------------|

[Riff]

   D5                        C5
E|-----10-5--4--3--1----1-3|-----10-5--4--3--1----1-3|
B|-3-3----------------3----|-1-1----------------3----|
G|-------------------------|-------------------------|
D|-------------------------|-------------------------|
A|-------------------------|-------------------------|
E|-------------------------|-------------------------|

   B5                        Bb5       C5
E|-----10-5--4--3--1----1-3|-----10-5--4--3--1----1-3|
B|-0-0----------------3----|--------------------3----|
G|-------------------------|-3-3---------------------|
D|-------------------------|-------------------------|
A|-------------------------|-------------------------|
E|-------------------------|-------------------------|

   D5                        C5
E|-----10-5--4--3--1----1-3|-----10-5--4--3--1----1-3|
B|-3-3----------------3----|-1-1----------------3----|
G|-------------------------|-------------------------|
D|-------------------------|-------------------------|
A|-------------------------|-------------------------|
E|-------------------------|-------------------------|

   B5                        Bb5       C5
E|-----10-5--4--3--1----1-3|-----10-5--4--3--1----1-3|
B|-0-0----------------3----|--------------------3----|
G|-------------------------|-3-3---------------------|
D|-------------------------|-------------------------|
A|-------------------------|-------------------------|
E|-------------------------|-------------------------|

[Verso 1]

   D5                    C5
E|---------------------|------------------------|
B|---------------------|------------------------|
G|---------------------|---------0--1--1-0-----0|
D|-3--3-3--3--3--0--0--|-3--3-3------------0-3--|
A|---------------------|------------------------|
E|---------------------|------------------------|

   B5                       Bb5          C5
E|------------------------|---------------------|
B|------------------1-----|-3--3--3---3-1-------|
G|---------0--1--2-----2--|---------2-----------|
D|-3--3-3-----------------|---------------------|
A|------------------------|---------------------|
E|------------------------|---------------------|

   D5                    C5
E|---------------------|-------------------------|
B|---------------------|------------------3------|
G|-2--2-2--2--2--0--0--|-2--2-2--2--0--2-----2-0-|
D|---------------------|-------------------------|
A|---------------------|-------------------------|
E|---------------------|-------------------------|

   B5                       Bb5        C5
E|------------------------|---------1--8--------|
B|-3-----------1----------|----1-3--------------|
G|----2--0--------0-------|-3-------------------|
D|----------3--------3--2-|---------------------|
A|------------------------|---------------------|
E|------------------------|---------------------|

[Verso 2] (2x)

   Bb5                      C5
E|--------1---1-3-4-3-1---|-4-1-1--3-------4--5-|
B|----------3-----------3-|---------------------|
G|------------------------|---------------------|
D|------------------------|---------------------|
A|------------------------|---------------------|
E|------------------------|---------------------|

   D5                          C#5        Eb5
E|-8--5-4-3-1---0-1--3--5--8-|-9--4-4-3-1-3-----|
B|------------3--------------|------------------|
G|---------------------------|------------------|
D|---------------------------|------------------|
A|---------------------------|------------------|
E|---------------------------|------------------|

   Bb5            C5
E|-------1-0----|-0--1--3--0--|
B|------------3-|-------------|
G|---0-2--------|-------------|
D|-3------------|-------------|
A|--------------|-------------|
E|--------------|-------------|

   D5                      C#5  Eb5
E|-5-----5-4-3-2-1-0----|--------------|
B|-------------------4-3|--2----4------|
G|----------------------|--------------|
D|----------------------|--------------|
A|----------------------|--------------|
E|----------------------|--------------|

[Ponte]

   Bb5        C5          B5        B5
E|-------1--|-0--------|--1-------|----------|
B|----------|------3---|----------|----------|
G|-3--------|----------|----------|----------|
D|----------|----------|----------|----------|
A|----------|----------|----------|----------|
E|----------|----------|----------|----------|
     Bb5          C5            D5
E|----------1--|--0----------|---------------------------------|
B|-------------|--------3----|--3----3-2-1-0-------------------|
G|---3---------|-------------|---------------3-2-1-0-----------|
D|-------------|-------------|-----------------------4-3-2-1-0-|
A|-------------|-------------|---------------------------------|
E|-------------|-------------|---------------------------------|

   Bb5        C5
E|-------1--|-0--------|
B|----------|------3---|
G|-3--------|----------|
D|----------|----------|
A|----------|----------|
E|----------|----------|

   B5                       B5
E|-1----------------------|-----1---3-1---------------|
B|----3-------------------|-------3-----1-3-1-------1-|
G|-------2--1--0--------0-|---0---------------2-0-2---|
D|---------------3--0-3---|---------------------------|
A|------------------------|-2-------------------------|
E|------------------------|---------------------------|

   Bb5        C5
E|-------1--|-0--------|
B|----------|------3---|
G|-3--------|----------|
D|----------|----------|
A|----------|----------|
E|----------|----------|

   D5                          D5
E|----1--0-----0-------------|------1-0--------0------0---------|
B|-3--------1-----3--------1-|------------1--------1----3------1|
G|-------------------0--2----|-----------------------------0-2--|
D|---------------------------|-0-0------------------------------|
A|---------------------------|----------------------------------|
E|---------------------------|----------------------------------|

[Final] (2x)

   Bb5                    C5
E|-----------------------|-----------------------|
B|-----------------------|-1-1----1-1-1--------1-|
G|-3-3----3-3-3--------3-|-----------------------|
D|-----------------------|-----------------------|
A|------1--------1-1-1---|------3--------3-3-3---|
E|-----------------------|-----------------------|

   D5       C#5            C5       B5
E|-----------------------|-----------------------|
B|-3-3----3-2-2--------2-|-1-1----1-0-0--------0-|
G|-----------------------|-----------------------|
D|------0----------------|-----------------------|
A|---------------4-4-4---|------3--------2-2-2---|
E|-----------------------|-----------------------|

   Bb5                    C5
E|-----------------------|-----------------------|
B|-----------------------|-1-1----1-1-1--------1-|
G|-3-3----3-3-3--------3-|-----------------------|
D|-----------------------|-----------------------|
A|------1--------1-1-1---|------3--------3-3-3---|
E|-----------------------|-----------------------|

   D5                      D5
E|-----------------------|-----------------------|
B|-3-3----3-3-3--------3-|-3-3----3-3-3--------3-|
G|-----------------------|-----------------------|
D|------0--------0-0-0---|------0----------------|
A|-----------------------|---------------0-0-0---|
E|-----------------------|-----------------------|
Composición de Cami-cat
Colaboración y revisión:
  • Matheus Bastos
  • GAME ALL
  • mateus montemor
7.042 vistas
    • ½ Tono
    • Am
    • Bbm
    • Bm
    • Cm
    • C#m
    • Dm
    • Ebm
    • Em
    • Fm
    • F#m
    • Gm
    • G#m
  • Agregar a la lista

    0 comentarios

    Ver todos los comentarios

    ¿Lograste tocar?

    74 Tocaron 59 Aún no

    ¡Graba un video tocando Megalovania y envíanoslo!

    00:00 / 00:00
    Outros vídeos desta música
    Repetir Calidad Automático
    Outros vídeos desta música
    00:00 / 00:00
    Automático
    OK