Cifra Club

Megalovania

Undertale

Tablatura: Principal (guitarra)
Tom: C
E|------------------------|---------------------|----------------------|
B|-----3------------------|------3--------------|------3---------------|
G|-------2--1--0---------0|--------2-1-0-------0|--------2-1-0-------0-|
D|-0-0------------3--0-3--|--------------3-0-3--|--------------3-0-3---|
A|------------------------|--3-3----------------|--2-2-----------------|
E|------------------------|---------------------|----------------------|

E|------------------------|---------------------|----------------------|
B|-----3------------------|------3--------------|------3---------------|
G|-------2--1--0---------0|--------2-1-0-------0|--------2-1-0-------0-|
D|----------------3--0-3--|--0-0---------3-0-3--|--------------3-0-3---|
A|-1-1--------------------|---------------------|--3-3-----------------|
E|------------------------|---------------------|----------------------|

E|------------------------|---------------------|-----10-5-4-3-1---1-3|
B|-----3------------------|------3--------------|-3-3------------3----|
G|-------2--1--0---------0|--------2-1-0-------0|---------------------|
D|----------------3--0-3--|--------------3-0-3--|---------------------|
A|-2-2--------------------|--1-1----------------|---------------------|
E|------------------------|---------------------|---------------------|

E|-----10-5-4-3-1---1-3|-----10-5-4-3-1---1-3|-----10-5-4-3-1---1-3|
B|-1-1------------3----|-0-0------------3----|----------------3----|
G|---------------------|---------------------|-3-3-----------------|
D|---------------------|---------------------|---------------------|
A|---------------------|---------------------|---------------------|
E|---------------------|---------------------|---------------------|

E|-----10-5-4-3-1---1-3|-----10-5-4-3-1---1-3|-----10-5-4-3-1---1-3|
B|-3-3------------3----|-1-1------------3----|-0-0------------3----|
G|---------------------|---------------------|---------------------|
D|---------------------|---------------------|---------------------|
A|---------------------|---------------------|---------------------|
E|---------------------|---------------------|---------------------|

E|-----10-5-4-3-1---1-3|-------------------|----------------------|
B|----------------3----|-------------------|----------------------|
G|-3-3-----------------|-------------------|--------0--1-1-0-----0|
D|---------------------|-3--3-3--3-3-0-0---|-3--3-3----------0-3--|
A|---------------------|-------------------|----------------------|
E|---------------------|-------------------|----------------------|

E|-----------------------|------------------3----|-------------------|
B|-----------------1-----|-3-3-3----3-1----------|-------------------|
G|--------0--1--2-----2--|-------2---------------|-2--2-2--2--2--0--0|
D|-3--3-3----------------|-----------------------|-------------------|
A|-----------------------|-----------------------|-------------------|
E|-----------------------|-----------------------|-------------------|

E|-------------------------|------------------------|----------1--8|
B|------------------3------|-3-----------1----------|----1--3------|
G|-2--2-2--2--0--2-----2-0-|----2--0--------0-------|-3------------|
D|-------------------------|----------3--------3--2-|--------------|
A|-------------------------|------------------------|--------------|
E|-------------------------|------------------------|--------------|

E|-1---1-3-4-3-1---|-4-1-1--3-------4--5|-8--5-4-3-1---0-1--3--5--8-|
B|---3-----------3-|--------------------|------------3--------------|
G|-----------------|--------------------|---------------------------|
D|-----------------|--------------------|---------------------------|
A|-----------------|--------------------|---------------------------|
E|-----------------|--------------------|---------------------------|

E|-9--4-4-3-1-3-----|-------1-0----|-0--1--3--0--|-5-----5-4-3-2-1-0----|
B|------------------|------------3-|-------------|-------------------4-3|
G|------------------|---0-2--------|-------------|----------------------|
D|------------------|-3------------|-------------|----------------------|
A|------------------|--------------|-------------|----------------------|
E|------------------|--------------|-------------|----------------------|

E|--------------|------1-----1-3-4-3-1---|-4-1-1-3------4--5|
B|--2----4------|---------3------------3-|------------------|
G|--------------|------------------------|------------------|
D|--------------|------------------------|------------------|
A|--------------|------------------------|------------------|
E|--------------|------------------------|------------------|

E|-8--5-4-3-1---0-1-3-5-8-|-9-4-4-3-1-3----|--------1-0-----|--0--1--3--0--|
B|------------3-----------|----------------|-------------3--|--------------|
G|------------------------|----------------|---0-2----------|--------------|
D|------------------------|----------------|-3--------------|--------------|
A|------------------------|----------------|----------------|--------------|
E|------------------------|----------------|----------------|--------------|

E|--5----5-4-3-2-1-0----|-----------|-------1--|--0--------|--1-------|
B|-------------------4-3|-2----4----|----------|-------3---|----------|
G|----------------------|-----------|-3--------|-----------|----------|
D|----------------------|-----------|----------|-----------|----------|
A|----------------------|-----------|----------|-----------|----------|
E|----------------------|-----------|----------|-----------|----------|

E|----------1--|--0----------|-------------------------------|--------|----------1--|
B|-------------|--------3----|--3----3-2-1-0-----------------|--------|-------------|
G|---3---------|-------------|---------------3-2-1-0---------|--------|--3----------|
D|-------------|-------------|-----------------------4-3-2-1-|--0-----|-------------|
A|-------------|-------------|-------------------------------|--------|-------------|
E|-------------|-------------|-------------------------------|--------|-------------|

E|--0---------|--1----------------------|-----1---3-1---------------|-------1---|
B|-------3----|-----3-------------------|-------3-----1-3-1-------1-|-----------|
G|------------|--------2--1--0--------0-|---0---------------2-0-2---|-3---------|
D|------------|----------------3--0-3---|---------------------------|-----------|
A|------------|-------------------------|-2-------------------------|-----------|
E|------------|-------------------------|---------------------------|-----------|

E|---0--------------|----1--0-----0-------------|------1-0--------0------0---------|
B|-----------3------|-3--------1-----3--------1-|------------1--------1----3------1|
G|------------------|-------------------0--2----|-----------------------------0-2--|
D|------------------|---------------------------|-0-0------------------------------|
A|------------------|---------------------------|----------------------------------|
E|------------------|---------------------------|----------------------------------|

E|------------------------|----------------------|---------------------|
B|------------------------|-1-1---1-1-1--------1-|-3-3---3-2-2-------2-|
G|----3-3---3-3-3-------3-|----------------------|---------------------|
D|--------1---------------|----------------------|-----0---------------|
A|----------------1-1-1---|-----3--------3-3-3---|-------------4-4-4---|
E|------------------------|----------------------|---------------------|

E|-----------------------|----------------------|--------------------|
B|---1-1---1-0-0-------0-|----------------------|-1-1---1-1-1-------1|
G|-----------------------|-3-3---3-3-3-------3--|--------------------|
D|-----------------------|----------------------|--------------------|
A|-------3-------2-2-2---|-----1-------1-1-1----|-----3-------3-3-3--|
E|-----------------------|----------------------|--------------------|

E|------------------------|----------------------|--------------------|
B|---3-3---3-3-3--------3-|--3-3---3-3-3-------3-|--------------------|
G|------------------------|----------------------|-3-3---3-3-3-------3|
D|-------0--------0-0-0---|------0---------------|--------------------|
A|------------------------|--------------0-0-0---|-----1-------1-1-1--|
E|------------------------|----------------------|--------------------|

E|------------------------|----------------------|---------------------|
B|---1-1---1-1-1--------1-|--3-3---3-2-2-------2-|-1-1---1-0-0-------0-|
G|------------------------|----------------------|---------------------|
D|-------3----------------|------0---------------|---------------------|
A|----------------3-3-3---|--------------4-4-4---|-----3-------2-2-2---|
E|------------------------|----------------------|---------------------|

E|---------------------------------|-----------------------------|--------------------|
B|---------------------------------|--1--1-----1--1--1---------1-|-3--3---3--3--3----3|
G|---3--3-----3--3--3-----------3--|-----------------------------|--------------------|
D|---------------------------------|-----------------------------|--------------------|
A|---------1-----------1--1--1-----|--------3-----------3-3-3----|--------------------|
E|---------------------------------|-----------------------------|--------------------|

E|----------------------|----------------------|----------------------|
B|--3--3---3--3--3------|-----3----------------|-----3----------------|
G|----------------------|-------2--1-0-------0-|-------2--1-0-------0-|
D|----------------------|--------------3-0-3---|--------------3-0-3---|
A|----------------------|-1-1------------------|-3-3------------------|
E|----------------------|----------------------|----------------------|

E|---------------------|---------------------|---------------------|---------------------|
B|-----3---------------|-----3---------------|-----3---------------|-----3---------------|
G|-------2-1-0-------0-|-------2-1-0-------0-|-------2-1-0-------0-|-------2-1-0-------0-|
D|-0-0---------3-0-3---|-0-0---------3-0-3---|-------------3-0-3---|-------------3-0-3---|
A|---------------------|---------------------|-1-1-----------------|-3-3-----------------|
E|---------------------|---------------------|---------------------|---------------------|
reproducciones 2.352
Acordes para:
    Composição: Cami-cat Colaboración y revision:
    • GAME ALL
    • mateus montemor

    0 comentarios

    mostrar más comentarios

    ¿Conseguiste tocar?

    52 tocaron 35 aún no

    ¡Graba un vídeo tocando Megalovania y envianoslo!

    00:00 / 00:00
    outros vídeos desta música
    repetir qualidade Automático
    Outros vídeos desta música
    00:00 / 00:00
    Automático
    OK