Cifra Club

Your Best Friend

Undertale

Tablatura: Principal (guitarra)
Tom: G#m
Intro:
E|------8-8-------8-8--
B|-9-9-----------------
G|-----------8-8-------
D|--------------------- (4x)
A|---------------------
E|---------------------

                                                                                                                             
E|-8-x-8-9-11-x-8-x-9-x-9-11----------8-x-8-9-11-x--16-x-13~~~~~-8/9h11--
B|---------------------------11-x----------------------------------------
G|--------------------------------8-x------------------------------------
D|-----------------------------------------------------------------------
A|-----------------------------------------------------------------------
E|-----------------------------------------------------------------------

                                                            
E|-8-x-8-9-11-x-8-x-9-x-9-11----------8-x-8-9--------------13/15h16--
B|---------------------------11-x-------------11-x-8-x-9~~-----------
G|--------------------------------8-x--------------------------------
D|-------------------------------------------------------------------
A|-------------------------------------------------------------------
E|-------------------------------------------------------------------
reproducciones 326
Acordes para:
    Composição: Toby Fox Colaboración y revision:
    • Leo OORguitah

    0 comentarios

    mostrar más comentarios

    ¿Conseguiste tocar?

    4 tocaron 4 aún no

    ¡Graba un vídeo tocando Your Best Friend y envianoslo!

    00:00 / 00:00
    outros vídeos desta música
    repetir qualidade Automático
    Outros vídeos desta música
    00:00 / 00:00
    Automático
    OK