Cifra Club

Jimmy Jimmy

The Undertones

Tablatura: Principal (guitarra)
Tom: D
Standard Tuning| E, A, D, G,


Intro

G|----------------|----------------|----------------|----------------|
D|----------------|----------------|----------------|----------------|
A|5---5-5-7-5-----|----------------|5---5-5-7-5-----|----------------|
E|----------------|5-5-5-5-5-5-5-5-|----------------|5-5-5-5-5-5-5-5-|

G|----------------|----------------|----------------|----------------|
D|----------------|----------------|----------------|----------------|
A|5---5-5-7-5-----|----------------|----------------|7-5-5-7---7-7-7-|
E|----------------|5-5-5-5-5-5-5-5-|3-3-3-3-3-3-3-3-|----------------|

G|----------------|----------------|
D|----------------|----------------|
A|----------------|7-5-5-7---7-7-7-|
E|3-3-3-3-3-3-3-3-|----------------|


Verse

G|----------------|----------------|----------------|----------------|
D|----------------|----------------|----------------|----------------| repeat
A|----------------|7-7-7-7-7-7-7-7-|5-5-5-5-5-5-5-5-|7-7-7-7-7-7-7-7-| *2
E|5-5-5-5-5-5-5-5-|----------------|----------------|----------------|/


Chorus 1| As Intro

Chorus 2|

G|----------------|----------------|----------------|----------------|
D|----------------|----------------|----------------|----------------|
A|5---5-5-7-5-----|----------------|5---5-5-7-5-----|----------------|
E|----------------|5-5-5-5-5-5-5-5-|----------------|5-5-5-5-5-5-5-5-|

G|----------------|----------------|----------------|----------------|
D|----------------|----------------|----------------|----------------|
A|5---5-5-7-5-----|----------------|5---5-5-7-5-----|3---5-7---------|
E|----------------|5-5-5-5-5-5-5-5-|----------------|----------------|


Middle|

G|----------------|----------------|
D|----------------|----------------| repeat
A|------7-7-7-7-7-|5-5-5-7-7-7-7-7-| *6
E|5-5-5-----------|----------------|/


Last Chorus

G|----------------|----------------|----------------|----------------|
D|----------------|----------------|----------------|----------------|
A|5---5-5-7-5-----|----------------|5---5-5-7-5-----|----------------|
E|----------------|5-5-5-5-5-5-5-5-|----------------|5-5-5-5-5-5-5-5-|

G|----------------|----------------|----------------|----------------|
D|----------------|----------------|----------------|----------------|
A|5---5-5-7-5-----|----------------|----------------|7-7-7-7-7-7-7-7-|
E|----------------|5-5-5-5-5-5-5-5-|3-3-3-3-3-3-3-3-|----------------|

G|----------------|----------------|
D|----------------|----------------| repeat
A|----------------|7-7-7-7-7-7-7-7-| *2
E|3-3-3-3-3-3-3-3-|----------------|/


Outro

G|----------------|----------------|
D|----------------|----------------| repeat
A|5---5-5-7-5-----|----------------| to fade
E|----------------|5-5-5-5-5-5-5-5-|/


Song Order|

(4 bars tacet)
Intro
Verse 1
Chorus 1
Verse 2
Chorus 2
Middle
Chorus 3 (as Chorus 2)
Verse 3
Last Chorus
Outro
reproducciones 18
Acordes para:
    Colaboración y revision:
    • jorge Medeiros

    0 comentarios

    mostrar más comentarios

    ¿Conseguiste tocar?

    0 tocaron 0 aún no

    ¡Graba un vídeo tocando Jimmy Jimmy y envianoslo!

    00:00 / 00:00
    outros vídeos desta música
    repetir qualidade Automático
    Outros vídeos desta música
    00:00 / 00:00
    Automático
    OK