Cifra Club

Male Model Intro

The Undertones

Tablatura: Principal (guitarra)
Tom: G
Tabbed by:steve
Email:*

Tuning: eadgbe
                  X 4
e|-----------------|--|--------------------------------------------------|
B|-----------------|--|-----2--------------------------------------------|
G|-----------------|--|-2-2-2-2-2-5-5------------------------------------|
D|-7-7-6-6-4-4-6-6-|--|-2-2-2-2-2-5-5--5-5-5-----------------------------|
A|-5-5-4-4-2-2-4-4-|--|-0-0-0-0-0-3-3--5-5-5-----------------------------|
E|-----------------|--|----------------3-3-3-----------------------------|
                        X 3
e|---------------------|--|-----------------------------------------------|
B|---------------------|--|-----------------------------------------------|
G|-5-5-5-5-5-----------|--|-5-5-5-5-5-7-7-7-7-7---------------------------|
D|-5-5-5-5-5-5-5-5-5-5-|--|-5-5-5-5-5-7-7-7-7-7---------------------------|
A|-3-3-3-3-3-5-5-5-5-5-|--|-3-3-3-3-3-5-5-5-5-5---------------------------|
E|-----------3-3-3-3-3-|--|-----------------------------------------------|

reproducciones 11
Acordes para:

    0 comentarios

    mostrar más comentarios

    ¿Conseguiste tocar?

    0 tocaron 0 aún no

    ¡Graba un vídeo tocando Male Model Intro y envianoslo!

    00:00 / 00:00
    outros vídeos desta música
    repetir qualidade Automático
    Outros vídeos desta música
    00:00 / 00:00
    Automático
    OK