Cifra Club

Some Ou Me Assume

Unha Pintada

Cifrado: Principal (guitarra y guitarra eléctrica)
tono: Db (con acordes en la forma de Bb) Capotraste en 3ª casa
[Intro]

E|------------------------------------------|
B|------------------------------------------|
G|-3-5-7-8/10-8-7/3-3-3p5-------------------|
D|------------------------------------------|
A|------------------------------------------|
E|------------------------------------------|

E|------------------------------------------|
B|------------------------------------------|
G|-3-5-7-10-8-7/3-3-3p5---------------------|
D|------------------------------------------|
A|------------------------------------------|
E|------------------------------------------|

E|------------------------------------------|
B|------------------------------------------|
G|-3-5/7-5p7-5-3-2-3/5----------------------|
D|------------------------------------------|
A|------------------------------------------|
E|------------------------------------------|

            C
No começo até não existia amor
                D
Não era pra passar do beijo
                      Bm
Mas passou e amanheceu
                           Em
Ver você acordando do meu lado
          Am
Foi estranho no calor da transa
                   C
Escapar da minha boca uma frase envergonhada
             G                                 D
Saiu eu te amo, mesmo sabendo que queria me usar
           Am
Ficou estranho sentir
                        C
Um medo misturado com prazer
                                   G
Mas foi naquela hora que vi que você
                                        D
Nunca vai me assumir nem vai voltar pra ele
           Am
Eu não quero dividir seu corpo
                C
Dividir seu beijo e o seu coração
        G                                      D
Eu não quero ser o seu amante a sua segunda opção
        Am                              C
Doí demais te ver feliz na rua e ter que engolir o meu ciúme
                G               D
Some ou me assume, some ou me assume

E|------------------------------------------|
B|------------------------------------------|
G|-3-5-7-8/10-8-7/3-3-3p5-------------------|
D|------------------------------------------|
A|------------------------------------------|
E|------------------------------------------|

E|------------------------------------------|
B|------------------------------------------|
G|-3-5-7-10-8-7/3-3-3p5---------------------|
D|------------------------------------------|
A|------------------------------------------|
E|------------------------------------------|

E|------------------------------------------|
B|------------------------------------------|
G|-3-5/7-5p7-5-3-2-3/5-7-8-10-11/12-12~-----|
D|------------------------------------------|
A|------------------------------------------|
E|------------------------------------------|

          Am
Foi estranho no calor da transa
                   C
Escapar da minha boca uma frase envergonhada
             G                                 D
Saiu eu te amo, mesmo sabendo que queria me usar
           Am
Ficou estranho sentir
                        C
Um medo misturado com prazer
                                   G
Mas foi naquela hora que vi que você
                                        D
Nunca vai me assumir nem vai voltar pra ele
           Am
Eu não quero dividir seu corpo
                C
Dividir seu beijo e o seu coração
        G                                      D
Eu não quero ser o seu amante a sua segunda opção
        Am                              C
Doí demais te ver feliz na rua e ter que engolir o meu ciúme
                G               D
Some ou me assume, some ou me assume
Composición de Fellipe Aladin
Colaboración y revisión:
  • Vítor Novaes
  • Enf. Walber
236 vistas
    • ½ Tono
    • A
    • Bb
    • B
    • C
    • Db
    • D
    • Eb
    • E
    • F
    • F#
    • G
    • Ab
  • Agregar a la lista

    0 comentarios

    Ver todos los comentarios

    ¿Lograste tocar?

    3 Tocaron 2 Aún no

    ¡Graba un video tocando Some Ou Me Assume y envíanoslo!

    Relacionados

    00:00 / 00:00
    Outros vídeos desta música
    Repetir Calidad Automático
    Outros vídeos desta música
    00:00 / 00:00
    Automático
    OK