Cifra Club

Until You Crack

The Union Underground

Cifrado: Principal (guitarra y guitarra eléctrica)
Selo Cifra Club: esta cifra foi revisada para atender aos critérios oficiais da nossa Equipe de Qualidade.
tono: D
    Intro/Riff 1
E  :--------------------|
B  :--------------------|
G  :--------------------|
D  :--------------------|
A  :--------------------|
D  :-5/8--0--3---3/65---|

    Chorus/Riff 2
E  :--------------------|
B  :--------------------|
G  :--------------------|
D  :-5/8--0--3---3/65---|
A  :-5/8--0--3---3/65---|
D  :-5/8--0--3---3/65---|

    Riff 3
E  :-------------------------------|
B  :-------------------------------|
G  :-----5--5-5-5--4--4--3--3---3--|
D  :---7---------------------------|
A  :-5-----------------------------|
D  :-------------------------------|

    Riff 4
E  :-------------------------------|
B  :-------------------------------|
G  :-------------------------------|
D  :---7---------------------------|
A  :-5---8--8-8-8--7--7--6--6---6--|
D  :-------------------------------|

    Riff 5
E  :--------10--12--13---12--10--|
B  :-10-10-----------------------|
G  :-----------------------------|
D  :-----------------------------|
A  :-----------------------------|
D  :-----------------------------|
   
    Riff 6
E  :--------10--12--16--16--16-17--|
B  :-10-10-------------------------|
G  :-------------------------------|
D  :-------------------------------|
A  :-------------------------------|
D  :-------------------------------|
   
    Riff 7
E  :---------------------|
B  :---------------------|
G  :---------------------|
D  :-----3--5--6---5--3--|
A  :-5-------------------|
D  :---------------------|

    Riff 8
E  :----|
B  :----|
G  :----|
D  :-0--|
A  :-0--|
D  :-0--|


Song Structure:

Intro/Riff 1 (2 times)
Chorus/Riff 2 (6 times)

Riff 3 (3 times)
Riff 4 

Chorus/Riff 2 (8 times)

Riff 3 (3 times)
Riff 4 (2 times)

Chorus/Riff 2 (8 times)

Riff 5 (6 times)
Riff 6
Riff 7 (3 times), Break
Riff 7 (3 times)
Otros videos de esta canción
    8 exhibiciones
      • ½ Tono
      • A
      • Bb
      • B
      • C
      • Db
      • D
      • Eb
      • E
      • F
      • F#
      • G
      • Ab
    • Agregar a la lista

    Afinação da cifra

    Afinador online

      Ops (: Contenido disponible solo en portugués.
      OK