Cifra Club

Necessary Evil

Unknown Mortal Orchestra

Cifrado: Principal (guitarra y guitarra eléctrica)
tono: F (con acordes en la forma de G) Afinación: D G C F A D
Intro:
|----------------|
|------5-------5-|
|------5-------5-| 
|------5-------5-| x8
|----------------|
|--5-5---5-5-----|

Transform into the animal you need to...
|----------------|
|------5-------5-|
|------5-------5-| 
|------5-------5-| x2
|----------------|
|--5-5---5-5-----|

Fly from a destiny infested with chemi...
|------------5---------3---------2------
|----------3---3-----1---1-----0---0-2-4
|--------4---------2---------1-------1-3
|---------------------------------------
|---------------------------------------
|------3---------1---------0---------1-3

cals...
|----------------|
|------5-------5-|
|------5-------5-| 
|------5-------5-| x1`
|----------------|
|--5-5---5-5-----|

You need a new drug not invented by the C.I.A...
|----------8---------5---------5---------2--
|--------6---6-----5---5-----3---3-----0---0
|------7---------5---------3---------1------
|-------------------------------------------
|-------------------------------------------
|----6---------5---------3---------0--------

I wanna be your friend but don't have the self-control...
|--------8---------5---------2------
|------6---6-----5---5-----0---0-2-4
|----7---------5---------1-------1-3
|-----------------------------------
|-----------------------------------
|--6---------5---------0---------1-3

|----------------|
|------5-------5-|
|------5-------5-| 
|------5-------5-| x1
|----------------|
|--5-5---5-5-----|

We're in love... But I don't get what you see in me...
|--------------------8-----------8
|--5-7-8---8-7-----6---6-------6--
|--5-7-8---8-7---7-------7---7----
|--5-7-8---8-7--------------------
|---------------------------------
|--5-7-8---8-7-6-----------6------

(chorus)

Lovin' me could be your fatal flaw...
Just hangin' in here trying to be your...
Necessary evil, necessary evil...
|------------------------13-------------8-----------3----
|---------------------11----11--------6---6-------1---1--
|------------------12----------12---7-------8---2-------2
|---7---8---10------------------------------------------
|--------------------------------------------------------
|--5---6---8----11----------------6-----------1----------

|-|------------------------13-------------8-----------3-----------3----
|-|---------------------11----11--------6---6-------1---1-------1---1--
|-|------------------12----------12---7-------8---2-------2---2-------2
|-|---7---8---10------------------------------------------------------
|-|--------------------------------------------------------------------
|-|--5---6---8----11----------------6-----------1-----------1----------
Composición de Ruban Nielson
Colaboración y revisión:
  • eduardo miranda
96 vistas
    • ½ Tono
    • A
    • Bb
    • B
    • C
    • Db
    • D
    • Eb
    • E
    • F
    • F#
    • G
    • Ab
  • Agregar a la lista

    0 comentarios

    Ver todos los comentarios

    ¿Lograste tocar?

    1 Tocaron 0 Aún no

    ¡Graba un video tocando Necessary Evil y envíanoslo!

    00:00 / 00:00
    Otros videos de esta canción
    Repetir Calidad Automático
    Otros videos de esta canción
    00:00 / 00:00
    Automático
    OK