Cifra Club

Swim And Sleep (like a Shark)

Unknown Mortal Orchestra

Cifrado: Principal (guitarra y guitarra eléctrica)
tono: G
Intro
E|-------------------------------------------------------------11------------|
B|-9-----9----10-9\7--7-----9--6------10----10----12/14---14-------13--------|
G|--------------------------------6------------------------------------------|
D|---------------------------------------------------------------------------|
A|-7---7---7-----7\5--5---5----4------9---9----9----------11-------11--------|
E|---------------------------------------------------------------------------|

E|-------0--------0--------0-----------------------4---------------4---------|
B|---------------------0-----------2-------------2-----2-------4-----4-------|
G|---6--------4----------2----1----2--1--------3---------3-------4-----4-----|
D|-----6--------4-------------2----2--2----------------------------------4---|
A|-4--------2--------0--------2----0--2----------------------2---------------|
E|----------------------------0-------0------2-------------------------------|

E|-------0--------0--------0-------------|
B|---------------------0-----------2-----|
G|---6--------4----------2----1----2--1--|
D|-----6--------4-------------2----2--2--|
A|-4--------2--------0--------2----0--2--|
E|----------------------------0-------0--|

E|-------0--------0--------0-----------------------0---------------0---------|
B|---------------------0-----------2---------------------------0-----0-------|
G|---6--------4----------2----1----2--1--------4-----4-----------2-----2-----|
D|-----6--------4-------------2----2--2----------4-----4---------------------|
A|-4--------2--------0--------2----0--2------2---------------0-----------0---|
E|----------------------------0-------0--------------------------------------|

E|-----------|
B|------2----|
G|-1----2--1-|
D|-2----2--2-|
A|-2----0--2-|
E|-0-------0-|

Retorne á introdução e toque tudo de novo. Então:

E|-------------------------------------------------------------11------------|
B|-9-----9----10-9\7--7-----9--6------10----10----12/14---14-------13--------|
G|--------------------------------6------------------------------------------|
D|---------------------------------------------------------------------------|
A|-7---7---7-----7\5--5---5----4------9---9----9----------11-------11--------|
E|---------------------------------------------------------------------------|

E|---------------17--------------------16--------------------14--------------|
B|-17------17-------17---16------16-------16---14------14-------14---12------|
G|---------------------------------------------------------------------------|
D|---------------------------------------------------------------------------|
A|-16---16----16---------14---14----14---------12---12----12---------11---11-|
E|---------------------------------------------------------------------------|

E|-------12-----------------10----------------9------------------------------|
B|-12-------12---10----10------10---9-----9-----9---7---5-7-9-10---10---12-9-|
G|---------------------------------------------------------------------------|
D|---------------------------------------------------------------------------|
A|----11---------9---9----9---------7---7---7-------5---4-5-7-9-----9---11-7-|
E|---------------------------------------------------------------------------|
Compositor no encontrado.
Colaboración y revisión:
  • Vanna
62 vistas
    • ½ Tono
    • A
    • Bb
    • B
    • C
    • Db
    • D
    • Eb
    • E
    • F
    • F#
    • G
    • Ab
  • Agregar a la lista

    0 comentarios

    Ver todos los comentarios

    ¿Lograste tocar?

    0 Tocaron 0 Aún no

    ¡Graba un video tocando Swim And Sleep (like a Shark) y envíanoslo!

    00:00 / 00:00
    Otros videos de esta canción
    Repetir Calidad Automático
    Otros videos de esta canción
    00:00 / 00:00
    Automático
    OK