Cifra Club

California Sky

Unwritten Law

Tablatura: Principal (guitarra)
Tom: D
Introdução 
Riff 1 ( 4x  )  riff 1 e riff 2 ( 4 X ) 

Riff 1 

E|----------------------------------
B|----------------------------------
G|----------------------------------
D|-----99999--12-12-12---14-14-14---
A|-----77777--10-10-10---12-12-12---
E|----------------------------------

Riff 2

E|---------------------------------------------7---5----5-------
B|----5~-~--------5--5-----7-8-7------5-----------8-----8--7--5-
G|--------------------------------------------------------------
D|--------------------------------------------------------------
A|--------------------------------------------------------------
E|--------------------------------------------------------------


Riff 3

E|--10---------10-------
B|-------10---------10~-


 E5                      C5
Imagine, the dreams we had
             G5               D5  RIFF 3
Since we were children are real
E5        
It's magic 
    C5                               G5         D5
To see their minds filled with the music we feel
E5               G5        D5     C5
Well here's your message from above
E5                  G5              D5        G5
And if you wanta make push come to shove, alright
E5…
This ain't no lullaby 
G5      A5       C5         D5        RIFF 1 + RIFF 2
We're right at home in the California Sky
E5                      C5                G5               D5  RIFF 3
Illusions are taking part of the confusion in me

    E5                      C5                  G5          D5
Tomorrow, there will be no heroes left to follow
E…
You'll see
E5          G5              D5        C5
Bright lights they flash across the sky
E5          G5              D5        C5
May be the reason why we're all insane
E5… 
And I don't wanta get away
G5      A5       C5         D5        E…
We're right at home in the California Sky

SOLO 

e|-----------------------------------------------------------------------------~~12------------~~12-
B|----5~----8b----10fb--10fb-------12b----10---15~---12~~--10--15b------15--------------------------
G|-------------------------------------------------------------------------------------14----12-----

 REPITA 2X DEPOIS DO SOLO( G5 G5b E5 )( PASSAGEM RAPIDA )

G5           E5              C5
Live from the mansion on the hill
E5            E5                     D5    
Reminds you of the way we used to feel, right?
E…       G
Orion's aligned now
D5          C5
Turn back the time
E…
The California Sky
reproducciones 13
Acordes para:

    0 comentarios

    mostrar más comentarios

    ¿Conseguiste tocar?

    0 tocaron 0 aún no

    ¡Graba un vídeo tocando California Sky y envianoslo!

    00:00 / 00:00
    outros vídeos desta música
    repetir qualidade Automático
    Outros vídeos desta música
    00:00 / 00:00
    Automático
    OK