Cifra Club

Celebration Song

Unwritten Law

Tablatura: Principal (guitarra)
Tom: F#
Primeira parte:
C#
Ease Up a Little bit
      B9
Coz I want to rock you
C#
Follow the money spent
            B9
Well that's fine to guide you

C#
By my side let's go for a long ride
B9
In my car I'll drive you to my star
C#
Out in space won't matter
B9
Where we all
        F#
Hey Hey Yeah

Refrão:
C#              B9
A celebration
About time
F#
A generation out of line yeah
C#          B9           F#
The revolution's in everyone

Guitarra 1:
E|--------------------------------------|
B|--------------------------------------|
G|--11---------9---------11---------12b-|
D|---x--(x16)--x--(x16)---x--(x16)---x--|   (16x)
A|---9---------7----------9---------10b-|
D|--------------------------------------|

E|-------------------------------------------------------------|
B|-------------------------------------------------------------|
G|-------------------------------------------------------------|
D|--0--3-------------------------------------------------------|
A|--0--3-------------------------------------------------------|
D|--0--3----0-00-3p2p0--5p3p0--7p5p0--33-0-3-0-3-0--55-0-5-0-5-|

Verso:
E|---------5----5---5---------5-----5-----5---|
B|------6------6---6-----6--8----6-8---6-8----|
G|---7--------7---7---------------------------|  (2x)
D|--------------------------------------------|
A|--------------------------------------------|
D|--------------------------------------------|

Refrão:
E|-------------------------------------------|
B|-------------------------------------------|
G|--11---------9---------11---------7--------|
D|---x--(x16)--x--(x16)---x--(x16)--x--(x16--|
A|---9---------7----------9---------5--------|
D|-------------------------------------------|

E|---------------------------------|
B|---------------------------------|
G|--11---------9----------7--------|
D|---x--(x16)--x--(x16)---x--(x32--|
A|---9---------7----------5--------|
D|---------------------------------|

Pós-Refrão:
E|-----------------------------------------------------|
B|-----------------------------------------------------|
G|-----------------------------------------------------|   (2x)
D|-----------------------------------------------------|
A|-----------------------------------------------------|
D|--0-00-3p2p0--5p3p0--7p5p0--33-0-3-0-3-0--55-0-5-0-5-|

Verso:
E|---------5----5---5---------5-----5-----5---|
B|------6------6---6-----6--8----6-8---6-8----|
G|---7--------7---7---------------------------|   (2x)
D|--------------------------------------------|
A|--------------------------------------------|
D|--------------------------------------------|

Refrão:
E|-------------------------------------------|
B|-------------------------------------------|
G|--11---------9---------11---------7--------|
D|---x--(x16)--x--(x16)---x--(x16)--x--(x16--|
A|---9---------7----------9---------5--------|
D|-------------------------------------------|

E|---------------------------------|
B|---------------------------------|
G|--11---------9----------7--------|
D|---x--(x16)--x--(x16)---x--(x32--|
A|---9---------7----------5--------|
D|---------------------------------|

E|------|
B|------|
G|--7---|
D|--x---|
A|--5---|
D|------|

Ponte:
E|----------------------------------------------------|
B|----------------------------------------------------|
G|--6b(7)---------------------------------------------|
D|---x-----(strum while you bend)--00-0-000-0-0-0000--|
A|--4b(5)--------------------------00-0-000-0-0-0000--|
D|---------------------------------00-0-000-0-0-0000--|

E|---------|
B|---------|
G|---------|
D|--6b(7)--|
A|---x-----|
D|--4b(5)--|

E|----------------------------------------------------|
B|----------------------------------------------------|
G|--6b(7)---------------------------------------------|
D|---x-----(strum while you bend)--00-0-000-0-0-0000--|
A|--4b(5)--------------------------00-0-000-0-0-0000--|
D|---------------------------------00-0-000-0-0-0000--|

E|---------|
B|---------|
G|---------|
D|--6b(7)--|
A|---x-----|
D|--4b(5)--|

Refrão:
E|-------------------------------------------|
B|-------------------------------------------|
G|--11---------9---------11---------7--------|
D|---x--(x16)--x--(x16)---x--(x16)--x--(x16--|
A|---9---------7----------9---------5--------|
D|-------------------------------------------|

E|---------------------------------|
B|---------------------------------|
G|--11---------9----------7--------|
D|---x--(x16)--x--(x16)---x--(x32--|
A|---9---------7----------5--------|
D|---------------------------------|

E|-------------------------------------------|
B|-------------------------------------------|
G|--11---------9---------11---------7--------|
D|---x--(x16)--x--(x16)---x--(x16)--x--(x16--|
A|---9---------7----------9---------5--------|
D|-------------------------------------------|

E|---------------------------------|
B|---------------------------------|
G|--11---------9----------7--------|
D|---x--(x16)--x--(x16)---x--(x32--|
A|---9---------7----------5--------|
D|---------------------------------|

Outro:
E|-----------------------------------------------------|
B|-----------------------------------------------------|
G|-----------------------------------------------------|   (4x)
D|-----------------------------------------------------|
A|-----------------------------------------------------|
D|--0-00-3p2p0--5p3p0--7p5p0--33-0-3-0-3-0--55-0-5-0-5-|

E|------|
B|------|
G|------|
D|--0~--|
A|--0~--| (let it ring)
D|--0~--|

Guitarra 2:
E|------------------|
B|------------------|
G|------------------|
D|--0~--2~--4~--5~--|
A|--0~--2~--4~--5~--|
D|--0~--2~--4~--5~--|

E|-------------------------------------------------------------|
B|-------------------------------------------------------------|
G|-------------------------------------------------------------|
D|--0--3-------------------------------------------------------|
A|--0--3-------------------------------------------------------|
D|--0--3----0-00-3p2p0--5p3p0--7p5p0--33-0-3-0-3-0--55-0-5-0-5-|

Refrão:
E|-------------------------------------|
B|-------------------------------------|
G|-------------------------------------|   (8x)
D|--0--------2--------4--------5-------|
A|--0--(x8)--2--(x8)--4--(x8)--5-------|
D|--0--------2--------4--------5-------|

E|-----------------------------|
B|-----------------------------|
G|-----------------------------|
D|--0--------2--------0--------|
A|--0--(x8)--2--(x8)--0--(x16--|
D|--0--------2--------0--------|

E|-----------------------------------------------------|
B|-----------------------------------------------------|
G|-----------------------------------------------------|   (2x)
D|-----------------------------------------------------|
A|-----------------------------------------------------|
D|--0-00-3p2p0--5p3p0--7p5p0--33-0-3-0-3-0--55-0-5-0-5-|

Refrão:
E|-------------------------------------|
B|-------------------------------------|
G|-------------------------------------|   (8x)
D|--0--------2--------4--------5-------|
A|--0--(x8)--2--(x8)--4--(x8)--5-------|
D|--0--------2--------4--------5-------|

E|-----------------------------|
B|-----------------------------|
G|-----------------------------|
D|--0--------2--------0--------|
A|--0--(x8)--2--(x8)--0--(x16--|
D|--0--------2--------0--------|

Ponte:
E|-----------------------------|
B|-----------------------------|
G|-----------------------------|
D|--3--------5--------0--------|
A|--3--(x8)--5--(x8)--0--(x16--|
D|--3--------5--------0--------|

E|---------------------|
B|---------------------|
G|---------------------|
D|--00-0-000-0-0-0000--|
A|--00-0-000-0-0-0000--|
D|--00-0-000-0-0-0000--|

E|---------------------|
B|---------------------|
G|---------------------|
D|--00-0-000-0-0-0000--|
A|--00-0-000-0-0-0000--|
D|--00-0-000-0-0-0000--|

E|-------------------------------------|
B|-------------------------------------|
G|-------------------------------------|   (8x)
D|--0--------2--------4--------5-------|
A|--0--(x8)--2--(x8)--4--(x8)--5-------|
D|--0--------2--------4--------5-------|

E|-----------------------------|
B|-----------------------------|
G|-----------------------------|
D|--0--------2--------0--------|
A|--0--(x8)--2--(x8)--0--(x16--|
D|--0--------2--------0--------|

E|-------------------------------------|
B|-------------------------------------|
G|-------------------------------------|   (8x)
D|--0--------2--------4--------5-------|
A|--0--(x8)--2--(x8)--4--(x8)--5-------|
D|--0--------2--------4--------5-------|

E|-----------------------------|
B|-----------------------------|
G|-----------------------------|
D|--0--------2--------0--------|
A|--0--(x8)--2--(x8)--0--(x16--|
D|--0--------2--------0--------|

E|-----------------------------------------------------|
B|-----------------------------------------------------|
G|-----------------------------------------------------|   (4x)
D|-----------------------------------------------------|
A|-----------------------------------------------------|
D|--0-00-3p2p0--5p3p0--7p5p0--33-0-3-0-3-0--55-0-5-0-5-|

E|------|
B|------|
G|------|
D|--0~--|
A|--0~--|
D|--0~--|
reproducciones 28
Acordes para:
    Colaboración y revision:
    • Thomáz Silva

    0 comentarios

    mostrar más comentarios

    ¿Conseguiste tocar?

    0 tocaron 0 aún no

    ¡Graba un vídeo tocando Celebration Song y envianoslo!

    00:00 / 00:00
    outros vídeos desta música
    repetir qualidade Automático
    Outros vídeos desta música
    00:00 / 00:00
    Automático
    OK