Cifra Club

Elva

Unwritten Law

Tablatura: Principal (guitarra)
Tom: C
Introdução:
[--------------------------------------------------------------3--2---]
[------------------------1-3-3-3-------------------------------3--3---]
[--2/42--0-------0------0-0-0-0----2/42--0-------0-----------2--2---]
[---------------------2--2-2-2-2-----------------------0---2---0--0---]
[--------------3---------3-3-3-3---------------------------2----------]
[------------------------------------------------0---------0----------]


Verso:
[--0-----------------0-------0-----------0----------------0-0--0--0------]
[--1-----1-----------0-------------------1------1---------0--0--0--0-----]
[--0--------0--------0----------0--------0---------0------0--0--0--0-----]
[--2------------2----2--------------2----2------------2---2--2--2--2-----]
[--3--3--------------2--------------2----3--3-------------2--2--2--2-----]
[--0-----------------0---0---------------0----------------0--0--0--0-----]


refrão:
[--3-3-3----0--0--0--0------------3-0------------3-0-------]
[--3-3-3----1--1--1--1-----------------0---------------0---]
[--0-0-0----2--2--2--2-------------------------------------]       x2
[--0-0-0----2--2--2--2--------2---------------2------------]
[--2-2-2----0--0--0--0-------------------------------------]
[--3-3-3----0--0--0--0-----0---------------0---------------]
"I'm   al   -  right, al   -   right..."

depois:
[--2--2--2----0-0-0----------------3-0------------]
[--3--3--3----0-0-0---------------------0---------]
[--2--2--2----0-0-0----x3---------------------x6--]
[--0--0--0----2-2-2-------------2-----------------]
[-------------2-2-2-------------------------------]
[-------------0-0-0----------0--------------------]

toque a introdução....

toque o verso dinovo...

toque o refrão...

o solo tah aki:
[--------------------10-------10------10--------------------]
[--------8-10-8-10b------10b-----10b-----10b--10-8-7--------]
[--7--9----------------------------------------------7------]
[-----------------------------------------------------------]
[-----------------------------------------------------------]
[-----------------------------------------------------------]

[---------------------------------------------------------------]
[--8-7-----10--8----10--8-7-----10--8-----10--8--7----7--7b-----]
[-------7---------7-----------7--------7------------7-----------]
[---------------------------------------------------------------]
[---------------------------------------------------------------]
[---------------------------------------------------------------]

[-10/12--10-8-7--------------------------------------------------]
[-------------------10-8-7---------------------------------------]
[-----------------------------7h9--------------------------------]
[----------------------------------7b----------------------------]
[---------------------------------------9h10--7b-----------------]
[----------------------------------------------------------------]

toca o refrão dinovo...

introdução 4 vezes...

termina assim:
[-3----2----3----2~ ---]
[-3----3----3----3~ ---]
[----------------------]
[----------------------]
[----------------------]
[----------------------]
reproducciones 19
Acordes para:
    Composição: Nicholas Wright / Phil Jamieson / Scott Russo Colaboración y revision:
    • Felipe Fernandes

    0 comentarios

    mostrar más comentarios

    ¿Conseguiste tocar?

    0 tocaron 0 aún no

    ¡Graba un vídeo tocando Elva y envianoslo!

    00:00 / 00:00
    outros vídeos desta música
    repetir qualidade Automático
    Outros vídeos desta música
    00:00 / 00:00
    Automático
    OK