Cifra Club

Shallow

Unwritten Law

Tablatura: Principal (guitarra)
Tom: G
   as far as i know this tab is correct (as far as power chords go anyways)
its a great song by a great band and even better its easy, which is always a good
thing. if i did anything wrong id apreciate it if u told me so i could do it right too.

Tuning: Standard

   Verse
e|---------------------------------------------------------------------------|
B|---------------------------------------------------------------------------|
G|---------------------------------------5-5-5-5555555----7-7-7-7777777------|
D|-----5-5-5-5555555----2-2-2-2222222----5-5-5-5555555----7-7-7-7777777------|
A|-----5-5-5-5555555----2-2-2-2222222----3-3-3-3333333----5-5-5-5555555------|
E|-----3-3-3-3333333----0-0-0-0000000----------------------------------------|

   Chorus
e|---------------------------------------------------------------------------|
B|---------------------------------------------------------------------------|
G|-----555555---777777--------------------55555--77777-----------------------|
D|-----555555---777777---5555-444--22222--55555--77777--55555555-------------|
A|-----333333---555555---5555-444--22222--33333--55555--55555555-------------|
E|-----------------------3333-222--00000----------------33333333-------------|

   3rd Verse 
e|---------------------------------------------------------------------------|
B|---------------------------------------------------------------------------|
G|---------555555--------777777----------------------------------------------|
D|-----22--555555----55--777777----------------------------------------------|
A|-----22--333333----55--555555----------------------------------------------|
E|-----00------------33------------------------------------------------------|

     Verse 4x
     Chorus 2x
     Verse 4x
     Chorus 2x
     3rd Verse 8x (strumming changes after 4x)
     Chorus 4x (very very last 3 chords done slowly)
reproducciones 32
Acordes para:
    Composição: Scott Russo

    0 comentarios

    mostrar más comentarios

    ¿Conseguiste tocar?

    0 tocaron 0 aún no

    ¡Graba un vídeo tocando Shallow y envianoslo!

    00:00 / 00:00
    outros vídeos desta música
    repetir qualidade Automático
    Outros vídeos desta música
    00:00 / 00:00
    Automático
    OK