Cifra Club

Aprenda

She Says

Unwritten Law

Tablatura: Versão 2 (guitarra)
Tom: C
TUNED 1/2 STEP DOWN

 harmonics

INTRO/ VERSE

PLAY THIS 3 TIMES UNTIL "SORRY MY FRIENDS"

e-3--3--5--3--|
B-3--3--5--3--|
G-0--0--0--0--|
D-2--2--0--2--|
A-2--3--4--3--|
E-0-----5-----|

THEN PLAY THIS

GUITAR I

e-3--3--5--3--3--3--3--5--5--3--3---|
B-3--3--5--3--3--3--3--5--0--3--3---|
G-0--0--0--0--0--0--0--0--0--0--0---|
D-2--2--0--0--0--2--2--0--0--2--2---|
A-2--3--4--X--X--2--3--4--4--3--3---|
E-0-----5--3--2--0-----5--5---------|

GUITAR II (DISTORTED)

e-------------------------|
B-------------------------|
G-------------------------|
D-2--2--2-----------------|
A-2--2--2-----------------|
E-0--0--0-----------------|

GUITAR III

e-10---------------------|
B----8-------------------|
G------0-----------------|
D------------------------|
A------------------------|
E------------------------|

CHORUS

e---------------------------------|
B---------------------------------|
G----8--5-----------8--5--5-------|
D-5--8--5--3--4--5--8--5--5-------|
A-5--6--3--3--4--5--6--3--3-------|
E-3--6--3--1--2--3--6--3--3-------|


AFTER CHORUS

GUITAR I

e-3--3--5--3--------------|
G-0--0--0--0--------------|
D-2--2--0--2--------------|
A-2--3--4--3--------------|
E-0-----5-----------------|

GUITAR II (SLIGTLY DISTORTED)

e-----------------------------------------------------------------------|
B----8p7h8----------------1-0--------8p7h8--------------1-0-------------|
G----7----------------------0-----7-------------------0--------|
D-----------------------------------------------------------------|
A---------------------3-------------------------------3-----------------|
E--0-------8------5----------------0---------8-----5--------------------|


VERSE

CHORUS


BRIDGE (SHE SAID, SHE SAID...)

GUITAR I
e---------------------|
B---------------------|
G----5-----5----------|
D-2--5--7--5----------|
A-2--3--7--3----------|
E-0-----5-------------|

GUITAR II

e-----------------------------------------------------------|
B-----------------------------------------------------------|
G-----------------------------------------------------------|
D-----------------------------------------------------------|
A-22222222222-333333333333-44444444444444-333333333333------|
E-----------------------------------------------------------|


END OF BRIDGE (YOU CALLED THE POLICE)

e-3--3--3--3--3--3--3--5--3--3--3--3--3--3--3--3--3--5--5--3--3----|
B-3--3--3--3--3--3--3--5--3--3--3--3--3--3--3--3--3--5--5--3--3----|
G-0--0--0--0--0--0--0--0--0--0--0--0--0--0--0--0--0--0--0--0--0----|
D-0--0--0--2--2--2--2--0--0--0--2--0--0--2--2--2--2--0--0--2--2----|
A-X--X--X--2--2--3--3--4--X--X--2--X--X--2--2--3--3--4--4--3--3----|
E-3--2--3--0--0--------5--2--3--0--3--2--0--0--------5--5----------|

INTRO
VERSE
CHORUS
AFTER CHORUS
VERSE
CHORUS
BRIDGE
END OF BRIDGE
CHORUS
OUTRO (FEEDBACK + GUITAR III)
1 reproducciones
    • ½ Tom
    • A
    • Bb
    • B
    • C
    • Db
    • D
    • Eb
    • E
    • F
    • F#
    • G
    • Ab
  • Adicionar à lista

    0 comentarios

    Mostrar mais comentários

    ¿Conseguiste tocar?

    0 Tocaron 0 Ainda não

    Grave um vídeo tocando She Says e mande pra gente!

    00:00 / 00:00
    outros vídeos desta música
    repetir qualidade Automático
    Outros vídeos desta música
    00:00 / 00:00
    Automático
    OK