Cifra Club

The Celebration Song

Unwritten Law

Tablatura: Principal (guitarra)
Tom: D
E|------------------------------------------------||
B|------------------------------------------------||
G|10-----8-----6-----10---------------------------||
D|x--x16-x-x16-x-x16-x--x16*----------------------||
A|8------6-----4-----8----------------------------||
D|------------------------------------------------||

*bend the last 8 strokes slowly

E|------------------------------------------------||
B|------------------------------------------------||
G|------------------------------------------------||
D|------------------------------------------------||
A|------------------------------------------------||
D|0-00-5p3-0-6p3-0-7p5-0--3-3-03030-550-5-05------||


E|-----4---4---4-----4---4---4--------------------||
B|---5---5---5-----7---7---7----------------------||
G|-6----6---6----6----6---6-----------------------||
D|------------------------------------------------||
A|------------------------------------------------||
D|------------------------------------------------||


E|------------------------------------------------||
B|------------------------------------------------||
G|--10-----8-----6--------------------------------||
D|--x--x16-x-x16-x-x32----------------------------||
A|--8------6-----4--------------------------------||
D|------------------------------------------------||


E|----------------||
B|----------------||
G|--5-------------||
D|--x-x16*--------||
A|--3-------------||
D|----------------||
*bend last 8 strokes slowly

finally, end on

E|----------------||
B|----------------||
G|----------------||
D|-0--------------||
A|-0--------------||
D|-0--------------||
reproducciones 87
Acordes para:
    Colaboración y revision:
    • Paolo Oliveira

    0 comentarios

    mostrar más comentarios

    ¿Conseguiste tocar?

    0 tocaron 0 aún no

    ¡Graba un vídeo tocando The Celebration Song y envianoslo!

    00:00 / 00:00
    outros vídeos desta música
    repetir qualidade Automático
    Outros vídeos desta música
    00:00 / 00:00
    Automático
    OK