Cifra Club

Come Away Melinda

Uriah Heep

Tablatura: Principal (guitarra)
Tom: G
  COME AWAY MELINDA


        ---------------Am-----------------------------|
E----------0-------0-------0-------0------------------|
B--------1-------1-------1-------1--------------------|
G------2-------2-------2-------2----------------------|
D-----------------------------------------------------|
A---0--------0-------0-------0------------------------|
E-----------------------------------------------------|


              -------D----------------------|
E---------2-------2-------2-------2---------|
H-------3-------3-------3-------3-----------|
G-----2-------2-------2-------2-------------|
D---0-------0-------0-------0---------------|
A-------------------------------------------|
E-------------------------------------------|


              --------C---------------------------|
E----------0-------0-------0-------0--------------|
H--------1-------1-------1-------1----------------|
G------0-------0-------0-------0------------------|
D-------------------------------------------------|
A---3-------3--------3-------3--------------------|
E-------------------------------------------------|

              -------D----------------------|
E---------2-------2-------2-------2---------|
H-------3-------3-------3-------3-----------|
G-----2-------2-------2-------2-------------|
D---0-------0-------0-------0---------------|
A-------------------------------------------|
E-------------------------------------------|

   Am                 D                 C          D
        Daddy,  daddy, come and look!       See what  I have found!

   Am                 D                 C         D
        A little ways  away from here,      While digging in the ground.


E------------------------------------------|
H-------3-------3-------3-------3-----3----|
G-----2-------2-------2-------2-----2------|
D---0-------0-------0-------0-----0--------|
A------------------------------------------|
E------------------------------------------|

   Am   C                   G            D
        come away Melinda.     Come in and close the door.

   Am                 C
        It's nothing,   just a picture book   they had before the war...


        ...
reproducciones 84
Acordes para:

    0 comentarios

    mostrar más comentarios

    ¿Conseguiste tocar?

    0 tocaram 0 aún no

    Grave um vídeo tocando Come Away Melinda e mande pra gente!

    00:00 / 00:00
    outros vídeos desta música
    repetir qualidade Automático
    Outros vídeos desta música
    00:00 / 00:00
    Automático
    OK