Cifra Club

Easy Livin'

Uriah Heep

Tablatura: Principal (guitarra)
Tom: C
Intro

   Em / / / / / /       
    Em
E|--5-------------------------------5------------------------------------------
B|--6-----------------------5--6----6------------------------------------------
G|--7-----------------------5--6----7------------------------------------------
D|--7-----------------------5--6----7------------------------------------------
A|--5-------------------------------5------------------------------------------
E|--5-------------------------------5------------------------------------------

Play intro riff 4 times
------------------
Verse: 

"This is a thing ....."

Dm F Dm
Dm F Dm
----------------

Chorus:

"Easy livin', and I'm being forgiven......"

G Dm
G Dm
G F Dm

Riff

E|--5p3--------------------------------------------------------------------
B|------6--6p5-3--6p5-3-------3-3------------------------------------------
G|-----------------------5-5-----------------------------------------------
D|-------------------------------------------------------------------------
A|-------------------------------------------------------------------------
E|-------------------------------------------------------------------------

The part after the second chorus................

"Waiting.. Watching...."
Am F 
Am F
Am G Am
Bm G
Bm G
Am G F
reproducciones 155
Acordes para:
    Composição: Ken Hensley Colaboración y revision:
    • Alessandro Oliveira

    0 comentarios

    mostrar más comentarios

    ¿Conseguiste tocar?

    0 tocaram 0 aún no

    Grave um vídeo tocando Easy Livin' e mande pra gente!

    00:00 / 00:00
    outros vídeos desta música
    repetir qualidade Automático
    Outros vídeos desta música
    00:00 / 00:00
    Automático
    OK