Cifra Club

Footprints In The Snow

Uriah Heep

Tablatura: Principal (guitarra)
Tom: C
 tabs & dicas   E                                   
E|-------------------------------------------------------------| 
B|-------------------------------------------------------------| 
G|---------------8---9-9------------9-------6---6------------9-|   
D|-6---6-7-9-7-6----------6-7-9-7-6----6-6----9---7-9-6-7-6----|   
A|-------------------------------------------------------------| 
E|-------------------------------------------------------------| 


 E                            G 
Just like footprints in the snow 
  E                            G 
Who knows where my heart will go 
 F                  Am   F 
Will it lead me to you 
Fm                    C        Em 
Or will I see another empty day 

Seasons come and quickly go 
Kinda makes me 
Wonder if they know 
Why my heart keeps 
Running near and far 
If only they could tell me 
Where you are 

Am              Am7/G 
If you've ever been in love 
              Am7/F# 
Then you'll know the rocky road 
            F         G  
I've been speaking of 
Am    
You'll remember when 
     Am7/G  
The times were good 
         Am7/F#  
And the times 
            F     G 
You had to do without  
  Am   G             F   G 
Think carefully my friend (*) 
Am                   G 
It may look like a start  
                    F   E 
But it could be the end (*) 

I'm not trying to bring you down 
I'm just so tired of hangin' around 
I won't make 
The same mistake again 

Am              Am7/G 
If you've ever been in love 
              Am7/F# 
Then you'll know the rocky road 
            F         G  
I've been speaking of 
Am    
You'll remember when 
     Am7/G  
The times were good 
         Am7/F#  
And the times 
            F     G 
You had to do without  
  Am   G             F   G 
Think carefully my friend 
Am                   G 
It may look like a start 
                    F   G 
But it could be the end 
 Am   G             F   G 
Think carefully my friend 
Am                   G 
It may look like a start  
                    F - G 
But it could be the end 

 tabs & dicas   F                    G            Am  
E|------------------------------13--12---| 
B|---------------------12-13-12----------| 
G|-10-9-10-12-14-12-14-------------------|   
D|---------------------------------------|   
A|---------------------------------------| 
E|---------------------------------------| 

|Am|G|F|F(-G)|Am
reproducciones 28
Acordes para:

    0 comentarios

    mostrar más comentarios

    ¿Conseguiste tocar?

    0 tocaron 0 aún no

    ¡Graba un vídeo tocando Footprints In The Snow y envianoslo!

    00:00 / 00:00
    outros vídeos desta música
    repetir qualidade Automático
    Outros vídeos desta música
    00:00 / 00:00
    Automático
    OK