Cifra Club

Stealin

Uriah Heep

Tablatura: Principal (guitarra)
Tom: D
E|------------------------------------------------------------------------------------|
B|-------12-15~-------12-15~-----12-15-17-17b(18)17b(18)17b(18)17b(18)-----15----15---|
G|----------------------------------------------------------------------------16------|
D|--/12----------/12------------------------------------------------------------------|
A|------------------------------------------------------------------------------------|
E|------------------------------------------------------------------------------------|

E|----------17b(19)17b(19)17b(19)17b(19)-------------17b(19)17b(19)17b(19)17b(19)-----|
B|-------17---------------------------------------17----------------------------------|
G|-16-19------------------------------------16-19-------------------------------------|
D|------------------------------------------------------------------------------------|
A|------------------------------------------------------------------------------------|
E|------------------------------------------------------------------------------------|

E|-----------------------------------------------------------|
B|-12-15-17-17b(18)17b(18)17b(18)17b(19)-----15----15--------|
G|----------------------------------------------16-----------|
D|-----------------------------------------------------------|
A|-----------------------------------------------------------|
E|-----------------------------------------------------------|

E|-14----------14~---14----------14~---12b(13)12b(13)12b(13)12b(13)br(12)p10-12---10~-|
B|----15----15----------15----15------------------------------------------------------|
G|-------14----------------14---------------------------------------------------------|
D|------------------------------------------------------------------------------------|
A|------------------------------------------------------------------------------------|
E|------------------------------------------------------------------------------------|

E|-------------------------------------------------------14-14-14-17-17-17--|
B|----------------------------15-15-15----------15-15-15--------------------|
G|-------------------14-14-14----------14-14-14-----------------------------|
D|-12-12-12-16-16-16--------------------------------------------------------|
A|--------------------------------------------------------------------------|
E|--------------------------------------------------------------------------|

E|-16b(18)16b(18)16b(18)------------------|
B|----------------------------15-15-15~---|
G|----------------------------------------|
D|----------------------------------------|
A|----------------------------------------|
E|----------------------------------------|
reproducciones 61
Acordes para:
    Composição: Box / Hensley / Lanzon Colaboración y revision:
    • Diego Martins

    0 comentarios

    mostrar más comentarios

    ¿Conseguiste tocar?

    1 tocaron 0 aún no

    ¡Graba un vídeo tocando Stealin y envianoslo!

    00:00 / 00:00
    outros vídeos desta música
    repetir qualidade Automático
    Outros vídeos desta música
    00:00 / 00:00
    Automático
    OK