Cifra Club

The Golden Palace

Uriah Heep

Tablatura: Principal (guitarra)
Tom: F
E|----------0---------------0--------|----------0---------------0--------|
B|--------6---6-----------6---6------|--------6---6-----------6---6------|
G|------0-------0-------0-------0----|------0-------0-------0-------0----|
D|----7-----------7---7-----------7--|----7-----------7---7-----------7--|
A|--5---------------5----------------|-----------------------------------|
E|-----------------------------------|--6---------------6----------------|

E|----------0---------------0--------|----------0---------------0--------|
B|--------6---6-----------6---6------|--------6---6-----------6---6------|
G|------0-------0-------0-------0----|------0-------0-------0-------0----|
D|----7-----------7---7-----------7--|----7-----------7---7-----------7--|
A|------------------0----------------|--5---------------5----------------|
E|--8--------------------------------|-----------------------------------|

E|-----------------------------------|----------0---------------0--------|
B|----------0---------------0--------|--------0---0-----------0---0------|
G|--------0---0-----------0---0------|------2-------2-------2-------2----|
D|------4-------4-------4-------4----|----2-----------2---2-----------2--|
A|----2-----------2---2-----------2--|--0---------------0----------------|
E|--0---------------3----------------|-----------------------------------|

E|----------0---------------3--------|-----------------------------------|
B|--------1---1-----------0---0------|--------3-3-------------3-3--------|
G|------0-------0-------0-------0----|------3-----3---3-----3-----3---3--|
D|----2-----------2---0-----------0--|----3---------3-----3---------3----|
A|--3---------------2----------------|--1---------------1----------------|
E|-----------------------------------|-----------------------------------|

E|-----------------------------------|----------0---------------0--------|
B|----------0---------------0--------|--------0---0-----------0---0------|
G|--------0---0-----------0---0------|------2-------2-------2-------2----|
D|------4-------4-------4-------4----|----2-----------2---2-----------2--|
A|----2-----------2---2-----------2--|--0---------------0----------------|
E|--0---------------3----------------|-----------------------------------|

E|----------0---------------3--------|----------0---------------3--------|
B|--------1---1-----------0---0------|--------1---1-----------3---3------|
G|------0-------0-------0-------0----|------2-------2-------0-------0----|
D|----2-----------2---0-----------0--|----2-----------2---0-----------0--|
A|--3---------------2----------------|--0--------------------------------|
E|-----------------------------------|------------------3----------------|

E|----------1---------------1--------|--------------------------3--------|
B|--------1---1-----------1---1------|----------1-----------------3------|
G|------2-------2-------2-------2----|------0-----0---0-----0-------0----|
D|----3-----------3---3-----------3--|----2---2-----2-----0---0-------0--|
A|-----------------------------------|--3---------------2----------------|
E|--1---------------1----------------|-----------------------------------|

C               F            G
Whoa-oh-oh-oh, whoa-oh-oh-oh

C               F            G
Whoa-oh-oh-oh, whoa-oh-oh-oh
        Dm                    F     G        C
Can we give ourselves like a mother to her child?
C               F            G
Whoa-oh-oh-oh, whoa-oh-oh-oh


The second chorus finishes differently:
        Dm                    F     G        Gm
Can we give ourselves like a mother to her child?

( Gm  Gm  F  C ) (2x)
( Eb  Bb  C  D7 )

( E  A  B )

E|--0--|
B|--6--|
G|--0--|
D|--7--|
A|--5--|
E|-----|
reproducciones 30
Acordes para:
    Composição: Mick Box / Phil Lanzon Colaboración y revision:
    • Diego Martins

    0 comentarios

    mostrar más comentarios

    ¿Conseguiste tocar?

    0 tocaron 0 aún no

    ¡Graba un vídeo tocando The Golden Palace y envianoslo!

    00:00 / 00:00
    outros vídeos desta música
    repetir qualidade Automático
    Outros vídeos desta música
    00:00 / 00:00
    Automático
    OK