Cifra Club

Aprenda

The wizard

Uriah Heep

Tablatura: Principal (guitarra)
Tom: C
D|------------------------------------|
A|-3-3-3-3-3-3-3-3-3-3-3-3-3-3-3-3-3--| 2) 
F|-0-0-0-0-0-0-0-0-0-0-0-0-0-0-0-0-0--|
C|-0-0-0-0-0-0-0-0-0-0-0-0-0-0-0-0-0--| 
G|-3-3-3-3-2-2-2-2-3-3-3-3-2-2-2-2-2--| 
C|------------------------------------|

         THE WIZARD  (Hensley/Clarke)

Accoustic guitar opening:

D|--2---2---3p2----0h2-------------------|
A|---3---3-----3------3------3----3------|
F|----2---2------2------2---0----0-------|
C|-------------------------0----0--------|
G|------------------------3----2---------|
C|-0--------------------------------3-0--|

D|-2----2---3p2----0h2-----------------------|
A|-3-3---3-----3------3------3----3----------|
F|-2--2---2------2------2---0----0-----------|
C|-------------------------0----0------------|
G|------------------------3----2-------------|
C|---0------------------------------3-2-3-0--|

D|-2-2-2-3-2-0-2---------------2-2--|
A|-3-3-3-3-3-3-3--3--3--3--3---3-3--| 1) 
F|-2-2-2-2-2-2-2--0--0--0--0---2-2--|
C|----------------0--0--0--0--------|
G|----------------3--3--2--2--------|
C|-0--------------------------0-----|

verse:
1)
He was the wizard

Of a thousand kings
1)
And I chanced to meet him

One night wandering
2)
He told me tales

And he drank my wine
1)
Me and my magic man

Kinda feeling fine 

verse:
C
He had a cloak of gold
    Bb-F     C
And eyes of fire

And as he spoke
          Bb-F   C
I felt a deep desire
Bb           F 
To free the world
        Bb       Am
Of its fear and pain
C  
And help the people
          Bb-F  C
To feel free again


bridge:
G
Why don't we listen to
                   F
The voices in our hearts
G  
'Cause then I know we'd find
                   F
We're not so far apart
G
Everybody's got to be happy
                 F
Everyone should sing
G       
For we know the joy of life
                          F
The peace that love can bring 

verse (play like 1st verse):
So spoke the wizard
In his mountain home
The vision of his wisdom
Means we'll never be alone
And I will dream of my magic night
And a million silver stars
That guide me with their light
Compositor Clarke / Hensley
Colaboración y revision:
  • roan carvalho
300 reproducciones
    • ½ Tom
    • A
    • Bb
    • B
    • C
    • Db
    • D
    • Eb
    • E
    • F
    • F#
    • G
    • Ab
  • Adicionar à lista

    0 comentarios

    Mostrar mais comentários

    ¿Conseguiste tocar?

    4 Tocaron 0 Ainda não

    Grave um vídeo tocando The wizard e mande pra gente!

    00:00 / 00:00
    outros vídeos desta música
    repetir qualidade Automático
    Outros vídeos desta música
    00:00 / 00:00
    Automático
    OK