Cifra Club

Wake The Sleeper

Uriah Heep

Tablatura: Principal (guitarra)
Tom: C
E|---------------------------------------------------------------------------|
B|---------------------------------------------------------------------------|
G|----------------0-------------------------------0--------------------------|
D|--------------2---2p0-------------------------2---2p0----------------------|
A|--------0h1h2---------2p1p0-------------0h1h2---------2p1p0----------------|
E|--0h3h4---------------------3-----0h3h4------------------------------------|

E|---------------------------------------------------------------------------|
B|---------------------------------------------------------------------------|
G|---------------------------------------------------------------------------|
D|--2-2---1----------0-0-----------------------------------------------------|
A|-------------------------4----------3-3---2----------0-0---2---------------|
E|-------------------------------------------------------------3~------------|

E|---------------------------------------------------------------------------|
B|---------------------------------------------------------------------------|
G|---------------------------------------------------------------------------|
D|---------------------------------------------------------------------------|
A|---------------------------------------------------------------------------|
E|11111111111111111111111111111111111113333333333333333333333333333333333333-|

E|---------------------------------------------------------------------------|
B|----------------------------------15b17 --17--17~-------15b17--17--17~-----|
G|---------------------------------------------------------------------------|
D|---------------------------------------------------------------------------|
A|--7-7---7--------7-7---7---------------------------------------------------|
E|---------------------------------------------------------------------------|

E|---------------------------------------------------------------------------|
B|---------------------------------------------------------------------------|
G|---------------------------------0-----------------------------------------|
D|-------------------------------2---2p0-------------------------------------|
A|-------------------------0h1h2---------2p1p0-----2-------------------------|
E|--0h3h5h6-----(x6)-0h3h4---------------------3---0-------------------------|
reproducciones 22
Acordes para:
    Colaboración y revision:
    • Diego Martins

    0 comentarios

    mostrar más comentarios

    ¿Conseguiste tocar?

    0 tocaron 0 aún no

    ¡Graba un vídeo tocando Wake The Sleeper y envianoslo!

    00:00 / 00:00
    outros vídeos desta música
    repetir qualidade Automático
    Outros vídeos desta música
    00:00 / 00:00
    Automático
    OK