Cifra Club

Slow Jam

Usher

Cifrado: Principal (guitarra y guitarra eléctrica)
Selo Cifra Club: esta cifra foi revisada para atender aos critérios oficiais da nossa Equipe de Qualidade.
tono: Am
E|-------X------X---X-|
B|-8---8-X-8----X-8-X-|
G|-9---9-X-9----X-9-X-|
D|-9---9-X-9----X-9-X-|
A|-------X---~--X---X-|
E|-8-----X-8----X-8-X-|

Am7: 5x555x
E|-------X------X---X-|
B|-5---5-X-5----X-5-X-|
G|-5---5-X-5----X-5-X-|
D|-5---5-X-5----X-5-X-|
A|-------X---~--X---X-|
E|-5-----X-5----X-5-X-|

Dm7: x5756x
E|-------X------X---X-|
B|-6---6-X-6----X-6-X-|
G|-5---5-X-5----X-5-X-|
D|-7---7-X-7----X-7-X-|
A|-5-----X-5--~-X-5-X-|
E|-------X------X---X-|

F/G: 3x321x
E|-------X------X---X-|
B|-1---1-X-1----X-1-X-|
G|-2---2-X-2----X-2-X-|
D|-3---3-X-3----X-3-X-|
A|-------X---~--X---X-|
E|-3-----X-3----X-3-X-|


Pre-chorus:

Am7: 5x555x

E7: 12x121312x

Am7: 5x555x

D7: 10x101110x
Otros videos de esta canción
    15 exhibiciones
      • ½ Tono
      • Am
      • Bbm
      • Bm
      • Cm
      • C#m
      • Dm
      • Ebm
      • Em
      • Fm
      • F#m
      • Gm
      • G#m
    • Agregar a la lista

    Afinação da cifra

    Afinador online

      Ops (: Contenido disponible solo en portugués.
      OK