Cifra Club

You got it Bad

Usher

Tablatura: Principal (guitarra)
tono: Db
 just the solo. . .

"...you got it Bad"
e|--------------------------------------------------------------------------
B|-14-16-14-16/18vvvvvvvv--18/16/14-14-14/16/////(slide down)--------
G|------------------------------------------------------------------------
D|-------------------------------------------------------------------------
A|-------------------------------------------------------------------------
E|-------------------------------------------------------------------------

e|--------------------------------------------------------------------------
B|-----------14---14h16v--16/18-14-14h16-13-13h14--------------------
G|--xxxx-15---15----------------------------------------15-13-15--------
D|-------------------------------------------------------------------------
A|-------------------------------------------------------------------------
E|-------------------------------------------------------------------------

e|--------------------------------------------------------------------------
B|-------------------------------------------------------------------------
G|------------------------------------------------------------------------
D|--13h15p13-------------------------------------------------------------
A|--------------16-16h18-16h18-16h18-16h18-16/13/////(slide down)---
E|-------------------------------------------------------------------------

e|--------------------------------------------------13-14-16--1616161616-18-16------
B|----------------------------------16-14----14-----------------------------------18-
G|-------------------------13----13-------15-----------------------------------------
D|----------------------15----15-----------------------------------------------------
A|------------16-13-16---------------------------------------------------------------
E|--13-16-13-------------------------------------------------------------------------

e|---16-18/20-20/21\20-18-16-18--------------------16--14-14------------------------
B|---------------------------------18-16-14-16-14--------------18-18--16-16-14-16/18v
G|-----------------------------------------------------------------------------------
D|-----------------------------------------------------------------------------------
A|-----------------------------------------------------------------------------------
E|-----------------------------------------------------------------------------------

song continues
e|-------------------------------------14/1616161616/////(slide down)----------------
B|--16/18\16-14--------------------------------------------------------------14------
G|----------------15vvvv------------------------------------------------13-15----15--
D|-----------------------------------------------------------------------------------
A|-----------------------------------------------------------------------------------
E|-----------------------------------------------------------------------------------
Composição de Bryan-Michael Cox / Jermaine Dupri / Usher Raymond
391 reproducciones
    • ½ Tono
    • A
    • Bb
    • B
    • C
    • Db
    • D
    • Eb
    • E
    • F
    • F#
    • G
    • Ab
  • Adicionar à lista

    0 comentarios

    Ver todos os comentários

    ¿Conseguiste tocar?

    0 Tocaram 0 Ainda não

    Grave um vídeo tocando You got it Bad e nos envie!

    00:00 / 00:00
    outros vídeos desta música
    repetir qualidade Automático
    Outros vídeos desta música
    00:00 / 00:00
    Automático
    OK