Cifra Club

Plastic Girl

Uvr

Tab de bajo: Principal
Selo Cifra Club: esta cifra foi revisada para atender aos critérios oficiais da nossa Equipe de Qualidade.
Main riff

G|---------------------------------------| 
D|---6---------------3--------6--6-------| 
A|-----6---------3-4------4-6------------| 
E|-4---------4-6-------------------------| 

Intro/fill

G|---------------------------------------| 
D|-3-3-3-3-3-3-3-3-----------------------| 
A|-----------------4-4-4-4-6-6-6-6-------| 
E|---------------------------------------| 

Pre-Chorus

G|---------------------------------------| 
D|---------------------------------------| 
A|-----------------4-4-4-4-6-------------| 
E|-4-4-4-4-4-4-4-4-----------------------| 

Chorus 

"I've got a plastic mind..."


G|---------------------------------------| 
D|-----------------3-3-3-3---------------|
A|---------6-6-6-6---------6-6-6-6-------| 
E|-4-4-4-4-------------------------------| 

"Everything is plastic..."

G|---------------------------------------| 
D|---------------------------------------|
A|---------6-6-6-6-4-4-4-4-6-6-6-6-------| 
E|-4-4-4-4-------------------------------| 

Bridge

G|-----------------------------------------------------------------| 
D|-------------------------------------------------3-3-3-3-3-3-3-3-|x2
A|-4-4-4-4-4-4-4-4-----------------6-6-6-6-6-6-6-6-----------------| 
E|-----------------4-4-4-4-4-4-4-4---------------------------------| 

G|---------------------------------------| 
D|---------------------------------------|
A|-6-6-6-6-6-6-6-6-6--6------------------| 
E|---------------------------------------| 

* * 
Otros videos de esta canción
    11 exhibiciones

    Afinação da cifra

    Afinador online

    Ops (: Contenido disponible solo en portugués.
    OK