Cifra Club

Crossing Field - Sword Art Online

Uzi - Animes

Tablatura: Principal (guitarra)
Tom: F
Intro:

E|-------------------------------------------------------------|
B|--------------13------------15--15--13---10--11--10------10--|
G|--10--12--14-------10--9----------------------------12-------|
D|-------------------------------------------------------------|
A|-------------------------------------------------------------|
E|-------------------------------------------------------------|


E|--13----12-----------------------------------|
B|-------------13---13-/-15----15--15--15--15--|
G|---------------------------------------------|
D|---------------------------------------------|
A|---------------------------------------------|
E|---------------------------------------------|



verso:

E|-------------------------------------------------------|
B|-------------8-------------------------8---------------|
G|--10--9--10-----7-------9--10--9---10------7----7--10--|
D|--------------------10---------------------------------|
A|-------------------------------------------------------|
E|-------------------------------------------------------|

E|--8----------------------|
B|-------------------------|
G|-----10------9---7-------|
D|---------------------10--|
A|-------------------------|
E|-------------------------|

E|-----------------------------|
B|--8---8-------------------8--|
G|---------10------9---10------|
D|-----------------------------|
A|-----------------------------|
E|-----------------------------|


E|-------------------------------------------8---8---------|
B|-------------8--------------------------8----------------|
G|--10--9--10-----7-------9--10---9---10------------10--9--|
D|--------------------10-----------------------------------|
A|---------------------------------------------------------|
E|---------------------------------------------------------|

E|-----------------------------------------|
B|--10-------8-----------------------------|
G|-------10-------9------7---10--------10--|
D|-------------------10------------9-------|
A|-----------------------------------------|
E|-----------------------------------------|

E|----------------------------------------------------------------------------------------|
B|--8------8--10--10-/-11----8------8------8--13--13--11----------------------------------|
G|-----10-----------------------10-----10------------------12---12-/-14--10--10-/-12--12--|
D|----------------------------------------------------------------------------------------|
A|----------------------------------------------------------------------------------------|
E|----------------------------------------------------------------------------------------|

E|-------------------------------------------------------------|
B|--------------13------------15--15--13---10--11--10------11--|
G|--10--12--14-------10--9----------------------------12-------|
D|-------------------------------------------------------------|
A|-------------------------------------------------------------|
E|-------------------------------------------------------------|

E|--------------------------------------------------------10------|
B|--10------10------10------10------10--------10--11--10------10--|
G|------12------12------12------12--------12----------------------|
D|----------------------------------------------------------------|
A|----------------------------------------------------------------|
E|----------------------------------------------------------------|

E|-------------------------------------------------------------|
B|--------------13------------15--15--13---10--11--10------13--|
G|--10--12--14-------10--9----------------------------12-------|
D|-------------------------------------------------------------|
A|-------------------------------------------------------------|
E|-------------------------------------------------------------|

E|--------------------------------------------------------10------|
B|--10------10------10------10------10--------13--11--10----------|
G|------12------12------12------12--------12------------------12--|
D|----------------------------------------------------------------|
A|----------------------------------------------------------------|
E|----------------------------------------------------------------|
 
E|-------------------------------------------------|
B|----------13--10----10-h-11--10----------10------|
G|--12--10-------------------------12--12----------|
D|---------------------------------------------12--|
A|-------------------------------------------------|
E|-------------------------------------------------|

E|------------------------------------------------------------------------------------|
B|------------------------------------------------------------------------------------|
G|--14--14--14--14--14--12--10-------10-h-12--10--9-----------------------------------|
D|-------------------------------10--------------------10---12--12---12--12---12--12--|
A|------------------------------------------------------------------------------------|
E|------------------------------------------------------------------------------------|

E|------------------------------------------------------------------------------|
B|------------------------------------------------------------------------------|
G|--10-h-12--10------12--9------9--------10-h-12--10------12--9------9--9-/-10--|
D|---------------10---------10-----12-----------------10---------10-------------|
A|------------------------------------------------------------------------------|
E|------------------------------------------------------------------------------|
reproducciones 14
Acordes para:
    Composição: Uziel Isidoro Colaboración y revision:
    • Uziel Isidoro

    0 comentarios

    mostrar más comentarios

    ¿Conseguiste tocar?

    0 tocaron 0 aún no

    ¡Graba un vídeo tocando Crossing Field - Sword Art Online y envianoslo!

    00:00 / 00:00
    outros vídeos desta música
    repetir qualidade Automático
    Outros vídeos desta música
    00:00 / 00:00
    Automático
    OK