Cifra Club

IGNITE - Sword Art Online

Uzi - Animes

Tablatura: Principal (guitarra)
Tom: G
Introdução:

E|------------------------------------------------------------------------|
B|------------------------------------------------------------------------|
G|--17--17--17--17--16--14--16-/-17-------------------17--16--14----------|
D|------------------------------------15--15--15--15--------------17--15--|
A|------------------------------------------------------------------------|
E|------------------------------------------------------------------------|
 
E|--------------------------------------------|
B|------15------15---17--15-------------------|
G|---------------------------17--16--16-/-17--|
D|--17------17--------------------------------|
A|--------------------------------------------|
E|--------------------------------------------|

E|------------------------------------------------------------------|
B|-----------------------15-/-17--15--------------------17--15------|
G|--14--16--17-------------------------17--16--17--14-----------18--|
D|---------------17--15---------------------------------------------|
A|------------------------------------------------------------------|
E|------------------------------------------------------------------|
 
verso:

E|--------------|----------------------------------------------------|
B|--------------|----------------------------------------------------|
G|------17--16--|-------------------------------14-------------------|
D|--14----------|--14-----------------------17-------------------14--|
A|--------------|-------17--15--17--15--17----------17--17---17------|
E|--------------|----------------------------------------------------|
 
E|------------------------------------------------------------|
B|------------------------------------------------------------|
G|------------------14--16----------------------------17--16--|
D|--15--14--15--17----------17--15--15--14--14----14----------|
A|------------------------------------------------------------|
E|------------------------------------------------------------|

E|----------------------------------------------------|
B|----------------------------------------------------|
G|-------------------------------14-------------------|
D|--14-----------------------17-------------------14--|
A|-------17--15--17--15--17----------17--17---17------|
E|----------------------------------------------------|
 
E|--------------------------------------------------|
B|--------------------------------------------------|
G|--------------------------------------------------|
D|--15--14--15--17--15--14--------------------------|
A|--------------------------17--15--14--15------15--|
E|------------------------------------------17------|

E|-------------------------------------------------------------------|
B|-------------------------------------------------------------------|
G|-------------------------------------------------------------------|
D|--------------------------14--14---17--17--17--17--15--17--15--15--|
A|--17--17--17--17--15--17-------------------------------------------|
E|-------------------------------------------------------------------|

E|-------------------------------|
B|-------------------------------|
G|-------------------------------|
D|--15--15--14--15--14-----------|
A|----------------------15---15--|
E|-------------------------------|

E|---------------------------------------------|
B|---------------------------------------------|
G|---------------14--13--14--14-/-16--14-/-16--|
D|--17--16--16---------------------------------|
A|---------------------------------------------|
E|---------------------------------------------|

E|------------------------------------------------------------------------|
B|------------------------------------------------------------------------|
G|--17--17--17--17--16--14--16-/-17-------------------17--16--14----------|
D|------------------------------------15--15--15--15--------------17--15--|
A|------------------------------------------------------------------------|
E|------------------------------------------------------------------------|

E|---------------------------------------------------------------------|
B|------15------15---17--15--------------------------------------------|
G|---------------------------17--16--16-/-17---17--17--17--17--16--14--|
D|--17------17---------------------------------------------------------|
A|---------------------------------------------------------------------|
E|---------------------------------------------------------------------|

E|------------------------------------------------|
B|------------------------------------------------|
G|--16-/-17-------------------17--16--14----------|
D|------------15--15--15--15--------------17--15--|
A|------------------------------------------------|
E|------------------------------------------------|

E|--------------------------------------------|
B|------15------15---17--15-------------------|
G|---------------------------17--16--16-/-17--|
D|--17------17--------------------------------|
A|--------------------------------------------|
E|--------------------------------------------|

E|----------------------------------------------------------------------------|
B|--------------------------17--17---------------------------17--17-----------|
G|--14--17--17--17--16--14-----------14--17--17--17--16--14-----------16--17--|
D|----------------------------------------------------------------------------|
A|----------------------------------------------------------------------------|
E|----------------------------------------------------------------------------|
 

E|----------------------|
B|--------------17--14--|
G|--16------14----------|
D|----------------------|
A|----------------------|
E|----------------------|
reproducciones 11
Acordes para:
    Composição: Uziel Isidoro Colaboración y revision:
    • Uziel Isidoro

    0 comentarios

    mostrar más comentarios

    ¿Conseguiste tocar?

    0 tocaron 0 aún no

    ¡Graba un vídeo tocando IGNITE - Sword Art Online y envianoslo!

    00:00 / 00:00
    outros vídeos desta música
    repetir qualidade Automático
    Outros vídeos desta música
    00:00 / 00:00
    Automático
    OK