Cifra Club

The World (banda nightmare / Death Note)

Uzi - Animes

Tablatura: Principal (guitarra)
Tom: G
Introdução:
 
Guitarra 1:
 
E|-----------|--------------------------|
B|-----------|--------------------------|
G|-----------|--4-----------------------|
D|--4--4--4--|--4------7------5------4--|
A|--4--4--4--|--2------7------5------4--|
E|--2--2--2--|---------5------3------2--|
 
Guitarra 2: 
 
E|-----------|-------------------------------------------------------------------|
B|-----------|--7--7--7--7--10--8--7--7--7--7----7-------------------7--7--------|
G|--6--7--9--|--------------------------------9-----7--7--7----7--9--------9--9--|
D|-----------|-------------------------------------------------------------------|
A|-----------|-------------------------------------------------------------------|
E|-----------|-------------------------------------------------------------------|
 
Guitarra 1: 
 
E|--------------------------|
B|--------------------------|
G|--4-----------------------|
D|--4------7------5------4--|
A|--2------7------5------4--|
E|---------5------3------2--|
 
Guitarra 2: 
 
E|-----------|-------------------------------------------------------------|
B|-----------|--7--7--7--7--10--8--7-----------------------8--7------8--7--|
G|--6--7--9--|--------------------------9--7--6--7------7------------------|
D|-----------|-------------------------------------------------------------|
A|-----------|-------------------------------------------------------------|
E|-----------|-------------------------------------------------------------|
 
Guitarra 1: 
 
E|--------------------------|-----------------------|
B|--------------------------|-----------------------|
G|--4-------------7---------|--4--4--x--6--6--x--7--|
D|--4------5------7------4--|-----------------------|
A|--2------5------5------4--|--2--2--x--4--4--x--5--|
E|---------3-------------2--|-----------------------|
 
Verso:
 
Guitarra 1: 
 
E|------------------------------------------------------|------------------------------------------------------|
B|------------------------------------------------------|------------------------------------------------------|
G|--(4)-x--x--x---x--x--x--x---x--x--x--x---x--x--x--x--|------------------------------------------------------|
D|--(4)-x--x--x---x--x--x--x---x--x--x--x---x--x--x--x--|--(5)-x--x--x---x--x--x--x---x--x--x--x---x--x--x--x--|
A|--(2)-x--x--x---x--x--x--x---x--x--x--x---x--x--x--x--|--(5)-x--x--x---x--x--x--x---x--x--x--x---x--x--x--x--|
E|------------------------------------------------------|--(3)-x--x--x---x--x--x--x---x--x--x--x---x--x--x--x--|
 
Guitarra 2: 
 
E|-----------------------|---------------|
B|--7--5-----------------|--5------------|
G|--------7--6--4--6--7--|---------7--7--|
D|-----------------------|---------------|
A|-----------------------|---------------|
E|-----------------------|---------------|
 
Guitarra 1: 
 
E|------------------------------------------------------|------------------------------------------------------|
B|------------------------------------------------------|------------------------------------------------------|
G|--(7)-x--x--x---x--x--x--x---x--x--x--x---x--x--x--x--|------------------------------------------------------|
D|--(7)-x--x--x---x--x--x--x---x--x--x--x---x--x--x--x--|--(4)-x--x--x---x--x--x--x---x--x--x--x---x--x--x--x--|
A|--(5)-x--x--x---x--x--x--x---x--x--x--x---x--x--x--x--|--(4)-x--x--x---x--x--x--x---x--x--x--x---x--x--x--x--|
E|------------------------------------------------------|--(2)-x--x--x---x--x--x--x---x--x--x--x---x--x--x--x--|
 
Guitarra 2: 
 
E|------------------------|---------------|
B|------------------5-----|-----5--5-/-7--|
G|--6--7------7--7-----6--|--7------------|
D|------------------------|---------------|
A|------------------------|---------------|
E|------------------------|---------------|
 
Guitarra 1: 
 
E|------------------------------------------------------|---------------------------------------------|
B|------------------------------------------------------|---------------------------------------------|
G|------------------------------------------------------|---------------------------------------------|
D|--(5)-x--x--x---x--x--x--x---x--x--x--x---x--x--x--x--|--(7)-x--x--x---x--x--x--x---x--x--x--x---7--|
A|--(5)-x--x--x---x--x--x--x---x--x--x--x---x--x--x--x--|--(7)-x--x--x---x--x--x--x---x--x--x--x---7--|
E|--(3)-x--x--x---x--x--x--x---x--x--x--x---x--x--x--x--|--(5)-x--x--x---x--x--x--x---x--x--x--x---5--|
  
Pré-Refrão:
 
Guitarra 1: 
 
E|-------------------|-------------------------|
B|-------------------|-------------------------|
G|---------7---------|-------------------------|
D|--5------7------4--|--4--4--4--4----4--4--4--|
A|--5------5------4--|--4--4--4--4----4--4--4--|
E|--3-------------2--|--2--2--2--2----2--2--2--|
 
Guitarra 2: 
 
E|-------------5--|----------------------------------|
B|--7--5--7-------|--5-----5---------------5--5-/-7--|
G|----------------|-----7-----6------6--7------------|
D|----------------|----------------------------------|
A|----------------|----------------------------------|
E|----------------|----------------------------------|
 
Refrão:
 
Guitarra 1: 
 
E|--------------------------|
B|--------------------------|
G|--4-----------------------|
D|--4------7------5------4--|
A|--2------7------5------4--|
E|---------5------3------2--|
 
Guitarra 2: 
 
E|-----------|-------------------------------------------------------------------|
B|-----------|--7--7--7--7--10--8--7--7--7--7----7-------------------7--7--------|
G|--6--7--9--|--------------------------------9-----7--7--7----7--9--------9--9--|
D|-----------|-------------------------------------------------------------------|
A|-----------|-------------------------------------------------------------------|
E|-----------|-------------------------------------------------------------------|
 
Guitarra 1: 
 
E|--------------------------|
B|--------------------------|
G|--4-----------------------|
D|--4------7------5------4--|
A|--2------7------5------4--|
E|---------5------3------2--|
 
Guitarra 2: 
 
E|-----------|---------------------------------------------------|
B|-----------|--7--7--7--7--10--8--7-----------------------8--7--|
G|--6--7--9--|--------------------------9--7--6--7------7--------|
D|-----------|---------------------------------------------------|
A|-----------|---------------------------------------------------|
E|-----------|---------------------------------------------------|
 
Guitarra 1: 
 
E|--------------------|----------|
B|--------------------|----------|
G|------------4-------|----------|
D|--5----7----4----7--|--5----4--|
A|--5----7----2----7--|--5----4--|
E|--3----5---------5--|--3----2--|
 
Guitarra 2: 
 
E|--------------------------------------------|-------------------------------------------|
B|------------------7-------------------------|--------------------7---------10--8--8--7--|
G|--7--6---------------9--9--7--6-------7--9--|--7--6-----------7-----9-------------------|
D|--------9------9-----------------9----------|--------7--9--9----------------------------|
A|--------------------------------------------|-------------------------------------------|
E|--------------------------------------------|-------------------------------------------|
 
E|--------------------------|-----------------------|
B|--------------------------|-----------------------|
G|--4-----------------------|--4--4--x--6--6--x--7--|
D|--4------7------5------4--|-----------------------|
A|--2------7------5------4--|--2--2--x--4--4--x--5--|
E|---------5------3------2--|-----------------------|
reproducciones 5
Acordes para:
    Composição: Uziel Isidoro & Kassio Colaboración y revision:
    • Uziel Isidoro

    0 comentarios

    mostrar más comentarios

    ¿Conseguiste tocar?

    0 tocaron 0 aún no

    ¡Graba un vídeo tocando The World (banda nightmare / Death Note) y envianoslo!

    00:00 / 00:00
    outros vídeos desta música
    repetir qualidade Automático
    Outros vídeos desta música
    00:00 / 00:00
    Automático
    OK