Cifra Club

Carry On

Valencia

Tab de bajo: Principal
(verse - and also after chorus lead in during the chorus sections)

G|---------------------------------------------------------------------------|
D|---------------------------------------------------------------------------|
A|------5-------7--------5---------------------------------------------------|
E|---------------------------------3-----------------------------------------|

(chorus)
G|---------------------------------------------------------------------------|
D|----------------7----------------------------------------------------------|
A|------5-------------------2------------------------------------------------|
E|---------------------------------------3-----------------------------------|

(bridge)
G|---------------------------------------------------------------------------|
D|---------------------------------------------------------------------------|
A|-----7-----------------7---------------7--------------7-------10-----12----|
E|--------------10--------------10--------------10---------------------------|
00:00 / 00:00
Otros videos de esta canción
Repetir
Otros videos de esta canción
Composición de Valencia
Colaboración y revisión:
  • Élison Duarte
15 exhibiciones
00:00 / 00:00
OK