Cifra Club

Looking Forward To The Future

Valencia

Tablatura: Principal (guitarra)
tono: D
                              Looking Forward to the Future
Tabbed by:Jason Z
Email:J*

Tuning:standard

     Okay everbody, so im super excited about this tab. I figured this out all on my 
so here we go!  This is one of my favorite songs off of Promise of Redemption.

  (intro)
e|-----------------0-----------------------------------------|
B|-----0-0----0-0--0-----------------------------------------|
G|----8-8----6-6---1-Let-ring--------------------------------|
D|---9------7------2-----------------------------------------|
A|--9------7-------2-----------------------------------------|
E|-----------------------------------------------------------|

 verse-     (figure out strumming)
e|-----0-----0-----0-----------------------------------------|
B|-----0-----0-----0-----------------------------------------|
G|-----8-----6-----1-----------------------------------------|
D|---/-9-----7-----2-----------------------------------------|X7
A|-----9-----7-----2-----------------------------------------|
E|-----x-----x-----x-----------------------------------------|

  (you have always been there for me)
e|---0-----0-----0---------------------------------------|
B|---0-----0-----0---------------------------------------|
G|---4-----6-----1---------------------------------------|
D|---5-----7-----2---------------------------------------|X3
A|---5-----7-----2---------------------------------------|
E|---x-----x-----x---------------------------------------|

  (and if it means anything) let each note ring
e|---0-----0-----0---------------------------------------|
B|---0-----0-----0---------------------------------------|
G|---4-----6-----1---------------------------------------|
D|---5-----7-----2----Pause-oh-last-note-----------------|
A|---5-----7-----2---------------------------------------|
E|---x-----x-----x---------------------------------------|

(value the..)   (to make you..)   (nothing is..)
e|---0----------------0------------------0------------|
B|---0----------------0------------------0------------|
G|---1----------------4------------------6------------| X2
D|---2----------------5------------------7------------|
A|---2----------------5------------------7------------|
E|---x----------------x------------------x------------|

this song goes out to you.              (ends on)
e|--0----0----0----0----0------|----------0----0------|
B|--0----0----0----0----0------|----------0----0------|
G|--1----2----1----4----6------|----------2----1------|
D|--2----2----2----5----7------|----------2----2------|
A|--2----2----2----5----7------|----------2----2------|
E|--x----x----x----x----x------|----------x----x------|


play that till the end of the song!


Pretty sweet huh.
51 reproducciones
    • ½ Tono
    • A
    • Bb
    • B
    • C
    • Db
    • D
    • Eb
    • E
    • F
    • F#
    • G
    • Ab
  • Adicionar à lista

    0 comentarios

    Ver todos os comentários

    ¿Conseguiste tocar?

    0 Tocaram 0 Ainda não

    Grave um vídeo tocando Looking Forward To The Future e nos envie!

    00:00 / 00:00
    outros vídeos desta música
    repetir qualidade Automático
    Outros vídeos desta música
    00:00 / 00:00
    Automático
    OK