Cifra Club

The Good Life

Valencia

Cifrado: Principal (guitarra y guitarra eléctrica)
tono: G
(intro - guitar 2 strums G chord)

E|----10------10------10------10-----10-----10-----10-----10---------------|
B|-------8-------8-------8-------8------8------8------8------8-------------|
G|-12------12------11------11------9------9------7------7------------------|
D|-------------------------------------------------------------------------|
A|-------------------------------------------------------------------------|
E|-------------------------------------------------------------------------|

the whole song is basically these four chords, used for the verse,solo, and chorus:
(can also be played in power chords)

    G   D   Em  C

E|--3---2---x---0-----------------------------------------------------------|
B|--0---3---x---1-----------------------------------------------------------|
G|--0---2---0---0-----------------------------------------------------------|
D|--0---0---2---2-----------------------------------------------------------|
A|--2---x---2---3-----------------------------------------------------------|
E|--3---x---0---0-----------------------------------------------------------|

around 0:40
E|-------------------------------------------------------------------------|
B|-------------------------------------------------------------------------|
G|-------------------------------------------------------------------------|
D|---0-5-2-5-2p0-7-7-7-7-9p7-5---------------------------------------------|
A|-------------------------------------------------------------------------|
E|-------------------------------------------------------------------------|

E|-------------------------------------------------------------------------|
B|-------------------------------------------------------------------------|
G|-------------------------------------------------------------------------|
D|---0-5-2-5-5h7-7-7-7-7-9p7-5---------------------------------------------|
A|-------------------------------------------------------------------------|
E|-------------------------------------------------------------------------|

(pre-chorus)  G Asus2 Em
(bridge) (2:56)  D C G Em (played in power chords)

| /  slide up
| \  slide down
| h  hammer-on
| p  pull-off
| ~  vibrato
| +  harmonic
| x  Mute note
00:00 / 00:00
Otros videos de esta canción
Repetir
Otros videos de esta canción
Composición de Valencia
Colaboración y revisión:
  • Élison Duarte
12 exhibiciones
    • ½ Tono
    • A
    • Bb
    • B
    • C
    • Db
    • D
    • Eb
    • E
    • F
    • F#
    • G
    • Ab
  • Agregar a la lista
    00:00 / 00:00
    OK