Notificações Amigos pendentes

      Van Halen

      Hot For Teacher

      1.403 reproducciones
      Tono: A
      Intro:
      
      Riff 1:
           T        T            T            T
      
      E|---------------------------------------------------
      B|---------------------------------------------------
      G|---------------------------------------------------
      D|---------------------------------------------------
      A|---12-0h3h7-12p7p3p0h3h7-12p7p3p0h3h7-12p7p3p0h3h7-
      E|-\-------------------------------------------------
      
      
         T            T             T            T
      
      E|---------------------------------------------------
      B|---------------------------------------------------
      G|---------------------------------------------------
      D|---------------------------------------------------
      A|-12p9p5p0h5h9-12p9p5p0h5h12-12p9p5p0h5h9-12p9------
      E|---------------------------------------------------
      
      
         T        T             T            T
      
      E|---------------------------------------------------
      B|---------------------------------------------------
      G|---------------------------------------------------
      D|-12p0h3h7-12p7p3p0h3h7--12p7p3p0h3h7-12p7p3p0h3h7--
      A|---------------------------------------------------
      E|--------------------------------------------------
      
      
         T            T            T            T
      
      E|---------------------------------------------------
      B|---------------------------------------------------
      G|---------------------------------------------------
      D|-12p7p3p0h5h9-12p9p5p0h5h9-12p9p5p0h5h9-12p9-------
      A|---------------------------------------------------
      E|---------------------------------------------------
      
      
         T        T            T            T
      
      E|---------------------------------------------------
      B|---------------------------------------------------
      G|-12-0h3h7-12p7p3p0h3h7-12p7p3p0h5h9-12p9p5p0h3h7---
      D|---------------------------------------------------
      A|---------------------------------------------------
      E|---------------------------------------------------
      
      
         T            T            T
      
      E|---------------------------------------------------
      B|---------------------------------------------------
      G|-12p7p3p0h3h7-12p7p3p0h5h9-12p9--------------------
      D|---------------------------------------------------
      A|---------------------------------------------------
      E|---------------------------------------------------
      
      
         T      T        T          T          T
      
      E|-12p5h8-12p8p7h5-----------------------------------
      B|---------------8-12p8p7p5--------------------------
      G|--------------------------8-12p8p7p5---------------
      D|-------------------------------------8-12p8p7p5----
      A|---------------------------------------------------
      E|---------------------------------------------------
      
      
      E|---------------------------------------------------
      B|---------------------------------------------------
      G|--------2------------------------------------------
      D|--------2------------------------------------------
      A8p7p5p0--------------------------------------------
      E|--------2------------------------------------------
      
      
      Intro - Riff 2:
      
      
      E|---------------------------------------------------
      B|---------------------------------------------------
      G|------------------------5--4----1-2---1-2--1/2-----
      D|------------------------5--4----1-2---1-2--1/2-----
      A|---------------------------------------------------
      E|-2---2-2--2-2---2-2---2-------2--------------------
      
      
      E|---------------------------------------------------
      B|---------------------------------------------------
      G|----------------------------------10-7-4--1-2-1/2--
      D|----------------------------------10-7-4--1-2-1/2--
      A|---------------------------------------------------
      E|-2-2--2-2--2-2--2-2--2-2--2-2--2-2-----------------
      
      
      E|---------------------------------------------------
      B|---------------------------------------------------
      G|----------------------------5--4----1-2---1-2------
      D|----------------------------5--4----1-2---1-2------
      A|---------------------------------------------------
      E|-2-2--2--2-2--2-2--2-2--2-2------------------------
      
      
      E|---------------------------------------------------
      B|---------------------------------------------------
      G|---2--2--2--2--------------------------------------
      D|---2--2--2--2--------------------------------------
      A|---2--2--2--2--------------------------------------
      E|-0-0--0--------------------------------------------
      
      
      Primeira Parte - Riff 1:
      
      E|--------------------------------------------------
      B|--------------------------------------------------
      G|-5--5-5p2--2--5-5p2-5p2---------5-8/7-2-----------
      D|-2--2-2----2--2-2---2-----------5-8/7-2-----------
      A|------------------------0h5h6h7-------------------
      E|--------------------------------------------------
      
      
      E|--------------------------------------------------
      B|--------------------------------------------------
      G|-5---5-5p2--2---5-5p2--5-5p2--0-------------------
      D|-2---2-2----2---2-2----2-2----0-------------------
      A|--------------------------------------------------
      E|--------------------------------------------------
      
      
      Primeira parte:
      "Oh wow, man !"
      "Wait a second man. Whaddaya think the
      Teacher's gonna look likethis year?"
      "My butt, man!"
      
      Primeira parte - Riff 2:
      
      
      E|--------------------------------------------------
      B|--------------------------------------------------
      G|-2--2---2----2-2---2---2-2------------------------
      D|-2--2---2----2-2---2---2-2------------------------
      A|-0--3p0-3p0--0-3p0-3p0-0-3p0----------------------
      E|--------------------------------------------------
      
      
      E|--------------------------------------------------
      B|--------------------------------------------------
      G|---------5-8/7------------------------------------
      D|---------5-8/7------------------------------------
      A|-0h5h6h7------------------------------------------
      E|--------------------------------------------------
      
      
      T-T-Teacher stop that screaming,
      Teacher don't you see ?
      Don't wanna be no uptown fool.
      Maybe I should go to hell, but I'm doin' well,
      teacher needs to see me after school.
      
      Segunda Parte - Riff:
      
      E|---------------------------------------------------
      B|-------------------\-------------------------------
      G|---------5-8-7-5-7-\-13-12-10-12-------------------
      D|---------5-8-7-5-7-\-13-12-10-12-------------------
      A|-0h5h6h7-----------\-------------------------------
      E|---------------------------------------------------
      
      
      E|---------------------------------------------------
      B|-10b------10b--------------------------------------
      G|-10b--12--10b-12----15----14----13-----------------
      D|------12------12-13----12----11--------------------
      A|---------------------------------------------------
      E|---------------------------------------------------
      
      
      E|---------------------------------------------------
      B|---------------------------------------------------
      G|-12-12-12-----11-10-9-8-9--------------------------
      D|-10-10-10-----9--8--7-6-7--------------------------
      A|---------------------------------------------------
      E|---------------------------------------------------
      
      
      Segunda Parte:
      I think of all the education that I missed.
      But then my homework was never quite like this.
      
      Refrão:
      
      E|--------------------------------------------------
      B|--------------------------------------------------
      G|-2--2---2----2-2---2---2-2------------------------
      D|-2--2---2----2-2---2---2-2------------------------
      A|-0--3p0-3p0--0-3p0-3p0-0-3p0----------------------
      E|--------------------------------------------------
      
      
      E|--------------------------------------------------
      B|--------------------------------------------------
      G|---------5-8/7------------------------------------
      D|---------5-8/7------------------------------------
      A|-0h5h6h7------------------------------------------
      E|--------------------------------------------------
      
      
      (Variação)
      
      E|--------------------------------------------------
      B|--------------------------------------------------
      G|---------5-8/7----2---2---2---2---2---------------
      D|---------5-8/7----2---2---2---2---2---------------
      A|-0h5h6h7----------2---2---2---2---2---------------
      E|------------------0---0---0---0---0---------------
      
      
      Refrão:
      Got it bad, got it bad, got it bad,
      I'm hot for teacher.
      I got it bad, so bad,
      I'm hot for teacher.
      
      (Repete primeira parte com variação na letra)
      
      Primeira parte - Riff 2:
      "Hey, I heard you missed us, we're back !"
      "I brought my pencil"
      "Gimme something to write on, man"
      
      I heard about your lessons,
      But lessons are so cold.
      I know about this school.
      Little girl from cherry lane,
      How did you get so bold?
      How did you know that golden rule?
      
      Repete Segunda parte:
      
      (Riff Segunda parte com variação)
      
                             Harm. . . . .
      
      E|---------------------------------------------------
      B|-------------------------------7-------------------
      G|---------5-8-7-5-7-\---7-7---7-----7---------------
      D|---------5-8-7-5-7-\-------7-----7-----------------
      A|-0h5h6h7-----------\-------------------------------
      E|---------------------------------------------------
      
      
      E|---------------------------------------------------
      B|-10b------10b--------------------------------------
      G|-10b--12--10b-12----15----14----13-----------------
      D|------12------12-13----12----11--------------------
      A|---------------------------------------------------
      E|---------------------------------------------------
      
      
      E|---------------------------------------------------
      B|---------------------------------------------------
      G|----------12--11-10-9-8-9--------------------------
      D|-10-10-10-10--9--8--7-6-7--------------------------
      A|---------------------------------------------------
      E|---------------------------------------------------
      
      
      Segunda Parte:
      I think of all the education that I missed.
      But then my homework was never quite like this.
      
      Refrão:
      
      E|--------------------------------------------------
      B|--------------------------------------------------
      G|-2--2---2----2-2---2---2-2------------------------
      D|-2--2---2----2-2---2---2-2------------------------
      A|-0--3p0-3p0--0-3p0-3p0-0-3p0----------------------
      E|--------------------------------------------------
      
      
      E|--------------------------------------------------
      B|--------------------------------------------------
      G|---------5-8/7------------------------------------
      D|---------5-8/7------------------------------------
      A|-0h5h6h7------------------------------------------
      E|--------------------------------------------------
      
      
      (Variação)
      
      E|--------------------------------------------------
      B|--------------------------------------------------
      G|---------5-8/7----2---2---2---2---2---------------
      D|---------5-8/7----2---2---2---2---2---------------
      A|-0h5h6h7----------2---2---2---2---2---------------
      E|------------------0---0---0---0---0---------------
      
      
      Refrão:
      Got it bad, got it bad, got it bad,
      I'm hot for teacher.
      I got it bad, so bad,
      I'm hot for teacher.
      
      Solo:
      Parte 1 de 15
         T      T        T          T          T
      
      E|-12p5h8-12p8p7h5-----------------------------------
      B|---------------8-12p8p7p5--------------------------
      G|--------------------------8-12p8p7p5---------------
      D|-------------------------------------8-12p8p7p5----
      A|---------------------------------------------------
      E|---------------------------------------------------
      
      
      E|---------------------------------------------------
      B|---------------------------------------------------
      G|--------2------------------------------------------
      D|--------2------------------------------------------
      A8p7p5p0--------------------------------------------
      E|--------2------------------------------------------
      
      
      E|---------------------------------------------------
      B|---------------------------------------------------
      G|-4b6v----2^4*-6*-9*-11*-13*-14*--14v---------------
      D|---------------------------------------------------
      A|---------------------------------------------------
      E|---------------------------------------------------
      
      
      E|--14-----------------------------------------------
      B|-----15b17--14h17p14-14-14h17p14p19p14-------------
      G|---------------------------------------------------
      D|---------------------------------------------------
      A|---------------------------------------------------
      E|---------------------------------------------------
      
      
      E|---------------------------------------------------
      B|----14---------------------------------------------
      G|6-------18p16p14h16h18-14--16~--------------------
      D|---------------------------------------------------
      A|---------------------------------------------------
      E|---------------------------------------------------
      
      
      E|------------------------2------2-2-----------------
      B|----------------------2---5p2-------5p2p0----------
      G|-2b-2b-2b---2---2-4b6------------------------------
      D|--------------4------------------------------------
      A|---------------------------------------------------
      E|---------------------------------------------------
      
      
      E|---------------------------------------------------
      B|-5-5p2p0--5-5p2p0--5-5p2p0--5-5p2p0--5b7-----------
      G|---------------------------------------------------
      D|---------------------------------------------------
      A|---------------------------------------------------
      E|---------------------------------------------------
      
      
      E|-2--------2----------------------------------------
      B|--2h5p2---2---2------------------------------------
      G|--------5-------5p4p2--2h4-4--2-2-----2b4----------
      D|----------------------------------4----------------
      A|---------------------------------------------------
      E|---------------------------------------------------
      
      
      E|-------------------------------------------14------
      B|---------------------------------14~--17~--17b19---
      G|-2~-4~--5~-6~---9~-11~--13~--14~-------------------
      D|---------------------------------------------------
      A|---------------------------------------------------
      E|---------------------------------------------------
      
      
      E|--------------16p14----17p14---19p14----17p14------
      B|-----------14-------14-------14------14-------14---
      G|---------------------------------------------------
      D|---------------------------------------------------
      A|---------------------------------------------------
      E|---------------------------------------------------
      
      
      E|-----17--16--17--16h17p16-14----14-----------------
      B|-----------------------------17----17--17b19-------
      G|---------------------------------------------------
      D|---------------------------------------------------
      A|---------------------------------------------------
      E|---------------------------------------------------
      
      
      E|-14------------------14----------------------------
      B|-14-14h17p14---------14--14h17p14------14----------
      G|-------------16b18-----------------16-----17p16p14-
      D|---------------------------------------------------
      A|---------------------------------------------------
      E|---------------------------------------------------
      
      
      E|------------------------------------------2--------
      B|-14--------14-----14----------------------2--------
      G|----16--17----16-----14-16-16-16-14~--4b6---4b6r4--
      D|---------------------------------------------------
      A|---------------------------------------------------
      E|---------------------------------------------------
      
      
      E|---------------------------------------------------
      B|---2---5---7---------------------------------------
      G|-2-4b6-7b9-9b11------------------------------------
      D|---------------------------------------------------
      A|---------------------------------------------------
      E|---------------------------------------------------
      
      
      E|---------------------------------------------------
      B|---------------------------------------------------
      G|---2---2-x---2-x---2--2----------------------------
      D|---2---2-x---2-x---2--2----------------------------
      A|---2---2-x---2-x---2--2----------------------------
      E|-0---0---x-0-----0---------------------------------
      
      
      Primeira parte com variação na letra:
      
      (Primeira Parte - Riff 1)
      "Oh man, I think the clock is slow"
      "I don't feel tardy"
      "Class dismissed"
      
      (Repete refrão)
      (Riff Refrão)
      
      Riff Final:
      
      E|---------------------------------------------------
      B|---------------------------------------------------
      G|-2--2---2---2-2---2---2--11-12-13-14---------------
      D|-2--2---2---2-2---2---2--11-12-13-14---------------
      A|-0--3p0-3p0-0-3p0-3p0-0----------------------------
      E|---------------------------------------------------
      
      
      E|---------------------------------------------------
      B|---------------------------------------------------
      G|-11-12-13-14-11-12-13-14-11-12-13-14---------------
      D|-11-12-13-14-11-12-13-14-11-12-13-14---------------
      A|---------------------------------------------------
      E|---------------------------------------------------
      
      
      E|---------------------------------------------------
      B|--------3------------------------------------------
      G|--------0-0...-2...-4...-5...-7...-----------------
      D|--------0------------------------------------------
      A|-/19...--------------------------------------------
      E|--------3------------------------------------------
      
      
      E|---------------------------------------------------
      B|---------------------------------------------------
      G|-12...-14...-16...-17...-19...-21b24...------------
      D|---------------------------------------------------
      A|---------------------------------------------------
      E|---------------------------------------------------
      
      
         T  T  T  T  T  T
      
      E|---------------------------------------------------
      B|------------------2...-5-7/14...14\-2--------------
      G|------------------2...-5-7/14...14\-2--------------
      D|-/--/--/--/--/--/-2...-5-7/14...14\-2--------------
      A|---------------------------------------------------
      E|---------------------------------------------------
      

      Comentarios 27

      140 .
      • johnnyvictor johnnyvictor: Em 03/02/2014 23:02

        e triste tenta toocar esse musica no violao

      • Guilherme Guilherme: Em 09/03/2013 12:31

        tem q usa o super overdrive na introdução?

      • bewick bewick: Em 22/12/2012 12:17

        porque a musica tem que ser tao foda!!?!?!

      • guimotter guimotter: Em 08/10/2012 14:47

        essa é a melhor musica do van halen!

        • johnnyvictor johnnyvictor: Em 02/01/2014 12:48

          n so essa cara, tem um monte, cant stop lovin u, eruption

      • jhoninhas1 jhoninhas1: Em 19/05/2012 20:18

        mano o cara toca de mais dedihado perfeito essa e a magia do rock.........irado

      • guimotter guimotter: Em 06/05/2012 11:13

        muito foda a introdução!

      • tigerupercut tigerupercut: Em 22/04/2012 02:13

        poha sabia que ele tocava mais naum tanto vc é fodah cara!

      140 cancelar

      ¿conseguiste tocar?

      • •••

      covers

      ¡Grave un vídeo tocando Hot For Teacher y envie para nosotros!

      Ex.: http://www.youtube.com/watch?v=0IvSvIwGdwk
      ver cover de otras canciones »
      0:00 / 0:00
      1 versão de guitarra dificuldad reproducciones contribuición y correción
      1 versão de guitarra eléctrica dificuldad reproducciones contribuición y correción
      1 versão de cavaco dificuldad reproducciones contribuición y correción
      1 versão de teclado dificuldad reproducciones contribuición y correción
      1 versão de contrabajo reproducciones contribuición y correción
      4 versões de Guitar Proformatodownloadscontribuición
      play/pausefechar subir/bajar velocidad
      6ª cuerda E5ª cuerda A4ª cuerda D3ª cuerda G2ª cuerda B1ª cuerda E
        acordes
        publicidad
        cerrar
        ok