Cifra Club

Call If You Need Me

Vance Joy

Tablatura: Principal (guitarra)
Tom: C (con acordes en la forma de G) Capo en 5ª casa
[Intro]

E|-------------------------|-------------------------|
B|-------------------------|-------------------------|
G|-------------------------|-------------------------|
D|-----5-----5-----5-----5-|-----5-----5-----4-----4-|
A|---5-----5-----5-----5---|---5-----5-----5-----5---|
E|-3-----3-----3-----3-----|-0-----0-----2-----2-----| x2

[Verso]

E|-------------------------|-------------------------|
B|-------------------------|-------------------------|
G|-------------------------|-------------------------|
D|-----5-----5-----5-----5-|-----5-----5-----4-----4-|
A|---5-----5-----5-----5---|---5-----5-----5-----5---|
E|-3-----3-----3-----3-----|-0-----0-----2-----2-----| x8

[Refrão]

E|-------------------------|-----7-----7-------------|
B|-----5-----5-----5-----5-|-----------------7-----7-|
G|---0-----0-----0-----0---|---0-----0-----0-----0---|
D|-------------------------|-------------------------|
A|-3-----3-----3-----3-----|-7-----7-----5-----5-----|
E|-------------------------|-------------------------| x4

E|-------------------------|-------------|
B|----7-----7-----7-----7--|----7-----7--|
G|--0-----0-----0-----0----|--0-----0----|
D|-------------------------|-------------|
A|-5-----5-----5-----5-----|-5-----5-----|
E|-------------------------|-------------|

[Ponte]

E|-------------------------|---------------------------|
B|-----5-----5-5p3p0-0h3p0-|-----8-----8-----12-----12-|
G|---0-----0---------------|---0-----0-----0------0----|
D|-------------------------|---------------------------|
A|-3-----3-----------------|-7-----7-----10-----10-----|
E|-------------------------|---------------------------| x3

E|-------------------------|-------------------------|
B|-----5-----5-5h3p0-0h3p0-|-----8-----8-----7-----7-|
G|---0-----0---------------|---0-----0-----0-----0---|
D|-------------------------|-------------------------|
A|-3-----3-----------------|-7-----7-----5-----5-----|
E|-------------------------|-------------------------|

E|-------------------------|-------------|
B|----7-----7-----7-----7--|----7-----7--|
G|--0-----0-----0-----0----|--0-----0----|
D|-------------------------|-------------|
A|-5-----5-----5-----5-----|-5-----5-----|
E|-------------------------|-------------|

[Verso]

E|-------------------------|-------------------------|
B|-------------------------|-------------------------|
G|-------------------------|-------------------------|
D|-----5-----5-----5-----5-|-----5-----5-----4-----4-|
A|---5-----5-----5-----5---|---5-----5-----5-----5---|
E|-3-----3-----3-----3-----|-0-----0-----2-----2-----| x8

[Refrão]

E|-------------------------|-----7-----7-------------|
B|-----5-----5-----5-----5-|-----------------7-----7-|
G|---0-----0-----0-----0---|---0-----0-----0-----0---|
D|-------------------------|-------------------------|
A|-3-----3-----3-----3-----|-7-----7-----5-----5-----|
E|-------------------------|-------------------------| x4

E|-------------|
B|----7-----7--|
G|--0-----0----|
D|-------------|
A|-5-----5-----|
E|-------------|

[Final]

E|-------------------------|-------------------------|
B|-------------------------|-------------------------|
G|-------------------------|-------------------------|
D|-----5-----5-----5-----5-|-----5-----5-----4-----4-|
A|---5-----5-----5-----5---|---5-----5-----5-----5---|
E|-3-----3-----3-----3-----|-0-----0-----2-----2-----| x2

E|-------------------------|-------------------------|
B|-------------------------|-------------------------|
G|-------------------------|-------------------------|
D|-----5-----5-----5-----5-|-----5-----4-----4-----4-|
A|---5-----5-----5-----5---|---5-----5-----5-----5---|
E|-3-----3-----3-----3-----|-0-----0-----2-----2-----| 

E|-------------------------|-------------------------|
B|-------------------------|-------------------------|
G|-------------------------|-------------------------|
D|-----5-----5-----5-----5-|-----5-----5-----4-----4-|
A|---5-----5-----5-----5---|---5-----5-----5-----5---|
E|-3-----3-----3-----3-----|-0-----0-----2-----2-----| 

E|-x-|
B|-x-|
G|-x-|
D|-5-|
A|-5-|
E|-3-| 
reproducciones 30
Acordes para:
    Composição: Vance Joy Colaboración y revision:
    • Matheus Anciloto

    0 comentarios

    mostrar más comentarios

    ¿Conseguiste tocar?

    1 tocaron 0 aún no

    ¡Graba un vídeo tocando Call If You Need Me y envianoslo!

    00:00 / 00:00
    outros vídeos desta música
    repetir qualidade Automático
    Outros vídeos desta música
    00:00 / 00:00
    Automático
    OK