Enviar cifraEntrar

Ai, Ai, Ai

Vanessa da Mata

Acordes: Principal
reproducciones 494
Tono: F
Gm7 / C7 / Gm7 // C7 // Gm7 // C7 // Gm7 // C7 / C9/#5   / Gm7 /
 (só as notas - Sol, Sol#, La / Do, Do#, Re) / D7(#9)
Nã, nã, nã, nã, nã...



E|----------------------||--------------------------------------------------------|
B|----------------------||--------------------------------------------------------|
G|---------3------------||:----------------------------3-5/6-5-3-----------------:|
D|-----3-5---5-3-3/5~---||:------3--------3--------3-5-----------5-3-------------:|
A|-3/5------------------||:--3h5---5--3h5------3h5-------------------5-3-0-3-----:|
E|----------------------||:-----------------3------------------------------------:| (3x)


E|------------------------------------x---|
B|------------------------------------6---|
G|------------------------------------5---|
D|-----3--------3-------3-------------3---|
A|-3h5---5--3h5-----3h5-------3-4-5---x---|
E|----------------3-------4-5---------x---|



    Gm7                          C7         Gm7
Se você quiser eu vou te dar um amor desses de cinema
          Bb/C                        C7
Não vai te faltar carinho, plano,  assunto ao 
         Gm7
longo do dia
     Bb/C                      C7
Se você quiser eu largo tudo e vou pro mundo com 
  Gm7
você meu bem
              Bb/C                 C7
Nessa nossa estrada só terá belas praias e 
      Gm7
cachoeiras

                Bb/C   C9/#5  
Aonde o vento é brisa
                   Gm7
Onde não haja quem possa
                 Bb/C  C9/#5  
com a nossa felicidade
                Gm7
Vamos brindar a vida, meu bem
                Bb/C  C9/#5  
Aonde o vento é brisa
                    Gm7
E o céu claro de estrelas
                Bb/C  C9/#5  
O que a gente precisa
                     Gm7                    C7
É tomar um banho de chuva, um banho de chuvaaa..

Gm7 / C7 / Gm7 //
Ai, ai, ai...
Bb/C / C7 / Gm7 //
Ai, ai, ai...
Bb/C / C7 / Gm7 //
Ai, ai, ai...
Bb/C / C7 / Gm7 //
Ai, ai, ai...

(só as notas - Sol, Sol#, La / Do, Do#, Re) / D7(#9)

REPETE TUDO ATÉ AQUI...

Bb/C / C7 / Gm7 // C7 // Gm7 // C7 // Gm7 // C7 / C9/#5   / Gm7 / 
(só as notas - Sol, Sol#, La / Do, Do#, Re / Fa, Fa#, Sol) / Gm7/9(13)
Nã, nã, nã, nã, nã...


Gm7 ..........353333
C7 ...........x35353
C9/#5   ......x36533
D7(#9) .......x5456x
Bb/C .........x33333
Gm7/9(13) ....353355

  • 1
  • 2
  • 3
  • 4
  • 5
  • 6
  • 7
  • 8
  • 9
  • 10
  • 11
  • 12
    Acordes para:
      Composición: Liminha / Vanessa da MataColaboración y revision:

      0 comentarios

        mostrar mas comentarios

        ¿Conseguiste tocar?

        6tocaron0aún no

        ¡Grave un vídeo tocando Ai, Ai, Ai y envie para nosotros!

        00:00 / 00:00
        outros vídeos desta música
        repetirqualidadeautomática
        • automática
        Outro vídeos desta música
          00:00 / 00:00
          automática
          • automática
          cerrarplay/pause subir/bajar velocidad
            acordes
            cerrar
            OK
            Feedback