Cifra Club

Ice Ice Baby Intro

Vanilla Ice

Cifrado: Principal (guitarra y guitarra eléctrica)
tono: D
Here are four versions of ice ice baby...


E|---------------------------------------------------|
B|---------------------------------------------------|
G|---------------------------------------------------|
D|----------------------------------------5-7--------|
A|---------------------------------------------------|
E|-10-10-10-101010-5-10-10-10-10-101010-5------------|
or...
E|---------------------------------------------------|
B|---------------------------------------------------|
G|---------------------------------------------------|
D|-----0-0-0-000----0-0-0-0-000-----5-7--------------|
A|---------------0--------------0--------------------|
E|---------------------------------------------------|
or...
E|------------------------------------------------------|
B|------------------------------------------------------|
G|------------------------------------------------------|
D|--------------------------------5-7-------------------|
A|-----5-5-5-555---5-5-5-5-555--------------------------|
E|---------------5-------------5------------------------|
or...
E|---------------------------------------------------|
B|--------------------------------------------7-9----|
G|--------------------------------------------5-7----|
D|-12-12-12--121212-7--12-12-12-12--121212--7--------| (Rock Version)
A|-12-12-12--121212-7--12-12-12-12--121212--7--------|
D|-12-12-12--121212-7--12-12-12-12--121212--7--------|
00:00 / 00:00
Otros videos de esta canción
Repetir
Otros videos de esta canción
Compositor no encontrado.
130 exhibiciones
    • ½ Tono
    • A
    • Bb
    • B
    • C
    • Db
    • D
    • Eb
    • E
    • F
    • F#
    • G
    • Ab
  • Agregar a la lista
    00:00 / 00:00
    OK