Cifra Club

Albachiara

Vasco Rossi

Cifrado: Principal (guitarra y guitarra eléctrica)
Selo Cifra Club: esta cifra foi revisada para atender aos critérios oficiais da nossa Equipe de Qualidade.
tono: C
E|------------------------------------------------------------------|
B|------------------------------------------------------------------|
G|-------------------9--10--12~--10--9h10p9-----9-------------------|
D|----10~---10---12--------------------------12---12b(14)---r12-----|
A|------------------------------------------------------------------|
E|------------------------------------------------------------------|

E|------------------------------------------------------------------|
B|------------------------------------------------------------------|
G|----------------------------------10--9---------------------------|
D|---10--12~--10\------------7--10--10--10--10----------------7-----|
A|--------------------/8--8--8--8-----------10--10~--------9--9--9--|
E|-----------------------------------------------------10-----------|
                                                   
E|------------------------------------------------------------------|
B|--------------------------------8b(10)--8~--8--8h10p8p6-5h6p5-----|
G|---7----------------------------------------------------------7---|
D|-----10--9--7-----------------------------------------------------|
A|--------------10--8--7--------------------------------------------|
E|-----------------------10--8~-------------------------------------|

E|----------------------------------13b(15)--13--13--13--13--12-----|
B|---5-----------------------------------------------------------13-|
G|------7b(9)--7b(9)r7--5--7~--5\-----------------------------------|
D|------------------------------------------------------------------|
A|------------------------------------------------------------------|
E|------------------------------------------------------------------|

E|----------------------------17---------------------------17b(19)--17--17-|
B|------17b(19)--17--17b(19)-----17b(19)--17--15h17p15--15-----------------|
G|-12~---------------------------------------------------------------------|
D|-------------------------------------------------------------------------|
A|-------------------------------------------------------------------------|
E|-------------------------------------------------------------------------|

E|--17-------------------------------------------------------------|
B|-----18--17------------------------------------------------------|
G|-----------17-------------------------------19--19b(21)--19b(21)-|
D|-------------17--15--14--------17b(19)--17~----------------------|
A|------------------------15--15-----------------------------------|
E|-----------------------------------------------------------------|
        
E|-----------------------------------------------------------------|
B|--------20p17----17h20p17----17h20p17----17----------------------|
G|---19---------19----------19----------19-----19b(21)--19--19-----|
D|-----------------------------------------------------------------|
A|-----------------------------------------------------------------|
E|-----------------------------------------------------------------|

E|------------20----20--20b(22)--20--20b(22)--20--20b(22)r20--17----|
B|---15\---17----17-------------------------------------------------|
G|------------------------------------------------------------------|
D|------------------------------------------------------------------|
A|------------------------------------------------------------------|
E|------------------------------------------------------------------|

E|---20b(22)r20--17--20b(22)r20--17-----------------22--22b(24)-----|
B|-----------------------------------20b(22)r20p17------------------|
G|------------------------------------------------------------------|
D|------------------------------------------------------------------|
A|------------------------------------------------------------------|
E|------------------------------------------------------------------|

E|---22b(24)--22b(24)--22b(24)--22b(24)r22--20---------------/(15)--|
B|----------------------------------------------22b(24)-------------|
G|------------------------------------------------------------------|
D|------------------------------------------------------------------|
A|------------------------------------------------------------------|
E|------------------------------------------------------------------|

E|---17-------------20b(22)--20--20--20--20--19--19--17h19p17-------|
B|------17--20--17--------------------------------------------20----|
G|------------------------------------------------------------------|
D|------------------------------------------------------------------|
A|------------------------------------------------------------------|
E|------------------------------------------------------------------|

E|---17---------------------------------------------------20--------|
B|------20b(22)--20--20--20---18--17--18p17----17-------------------|
G|------------------------------------------19-----19b(21)----------|
D|-------------------------------------------------ho| ld bend--------|
A|------------------------------------------------------------------|
E|------------------------------------------------------------------|

                                        3:23   
E|------------------------------------------------------------------|
B|--------------------------------------x---x---/-------------------|
G|---(19)b(21)--19--17--17/19~--17\----x---x----3/----17/19\17/19---|
D|------------------------------------------------------------------|
A|------------------------------------------------------------------|
E|------------------------------------------------------------------|
                                     
E|----------------15-17--15----------------15-----------------------|
B|--------------------------18--17--15b(17)---15b(17)--15-----------|
G|---17b(19)--17--------------------ho| ld bend-----------------------|
D|------------------------------------------------------------------|
A|------------------------------------------------------------------|
E|------------------------------------------------------------------|
     
E|-----------17---------------------17b(19)--17--17----15-----------|
B|---17b(19)----17b(19)--17--15--15-----------------------18--17----|
G|---ho| ld bend------------------------------------------------------|
D|------------------------------------------------------------------|
A|------------------------------------------------------------------|
E|------------------------------------------------------------------|
                                       
E|------------------------------------------------------------------|
B|------------------------------------------------------------------|
G|---17-------------------------------------------------------------|
D|------17--15--14--14/15---14h15p14----14-------~~~tr| em------------|
A|-----------------------------------17----17b(19)--17b(19)\--------|
E|------------------------------------------------------------------|

E|------------------------------------------------------------------|
B|---15-15b(17)--15--15--15--15--13--12--12/13--12h13p12-----12-----|
G|-------------------------------------------------------/14----14~-|
D|------------------------------------------------------------------|
A|------------------------------------------------------------------|
E|------------------------------------------------------------------|
                           
E|--------------------------------------------17--------------------|
B|----------------------------17--17--17b(19)----17b(19)--17--15----|
G|---14--12---------------------------ho| ld bend---------------------|
D|----------15--14--------------------------------------------------|
A|-----------------15~-15-------------------------------------------|
E|------------------------------------------------------------------|

E|---17b(19)--17---20--20b(22)--20--20b(22)--(22)r20--17------------|
B|------------------------------------------------------------------|
G|------------------------------------------------------------------|
D|------------------------------------------------------------------|
A|------------------------------------------------------------------|
E|------------------------------------------------------------------|

                                               T   i   m     i  T         
E|---(20)b(22)r20--17--15b(17)---17p15h17p15--20---12h15/17p15--20--|
B|------------------------------------------------------------------|
G|------------------------------------------------------------------|
D|------------------------------------------------------------------|
A|------------------------------------------------------------------|
E|------------------------------------------------------------------|

      i  m     i  T     i  m     i  T
E|---12h15/17p15--20---12h15/17p15--20---17--15--17--15/17--17--15--|
B|------------------------------------------------------------------|
G|------------------------------------------------------------------|
D|------------------------------------------------------------------|
A|------------------------------------------------------------------|
E|------------------------------------------------------------------|
              
E|---17--15/17\15--17--15--17--15/17\15p12--17--15--17--15/17\15----|
B|------------------------------------------------------------------|
G|------------------------------------------------------------------|
D|------------------------------------------------------------------|
A|------------------------------------------------------------------|
E|------------------------------------------------------------------|
                             X5

E|---17--15--17--15/17\15---17--15--17--20-b(22)--20--20b(22)--20---|
B|------------------------------------------------------------------|
G|------------------------------------------------------------------|
D|------------------------------------------------------------------|
A|------------------------------------------------------------------|
E|------------------------------------------------------------------|

E|---20b(22)r20--17h20p17\15--17--15b(17)--15--15--15--15--22--22---|
B|------------------------------------------------------------------|
G|-----------------------------------------------------------21--21-|
D|------------------------------------------------------------------|
A|------------------------------------------------------------------|
E|------------------------------------------------------------------|

E|---22--22b(24)--22--22b(24)--22--22b(24)r22--20--22b(24)r22--20---|
B|------------------------------------------------------------------|
G|------------------------------------------------------------------|
D|------------------------------------------------------------------|
A|------------------------------------------------------------------|
E|------------------------------------------------------------------|

E|---22b(24)--22b(24)--22b(24)r22--20--22--22b(24)--22--22b(24)--22-|
B|------------------------------------------------------------------|
G|------------------------------------------------------------------|
D|------------------------------------------------------------------|
A|------------------------------------------------------------------|
E|------------------------------------------------------------------|

                                                              *echo*
E|---22b(24)r22--20--22b(24)--20--22b(24)--20--22b(24)--20--22b(24)-|
B|------------------------------------------------------------------|
G|------------------------------------------------------------------|
D|------------------------------------------------------------------|
A|------------------------------------------------------------------|
E|------------------------------------------------------------------|


************************************

| h  Hammer-on
| p  Pull-off
| ~  Vibrato
| r  Release
| \  Slide down
| /  Slide up
| x  Dead note
Otros videos de esta canción
    54 exhibiciones
      • ½ Tono
      • A
      • Bb
      • B
      • C
      • Db
      • D
      • Eb
      • E
      • F
      • F#
      • G
      • Ab
    • Agregar a la lista

    Afinação da cifra

    Afinador online

      Ops (: Contenido disponible solo en portugués.
      OK