Cifra Club

End Of The Road

Eddie Vedder

Cifrado: Principal (guitarra y guitarra eléctrica)
tono: Bb (con acordes en la forma de G) Capotraste en 3ª casa
CAPO NA 3ª CASA!

intro:
|---2--------0----------------
|---0--------0----------------
|---2--------1----------------
|---0--------0----------------
|------------2----------------
|------------0----------------
Riff:1
|---2--------0----------------
|---0--------0----------------
|---2--------1----------------
|---0--------0----------------
|------------2----------------
|------------0----------------

Riff:2

|----0----0-------2------  
|----2----0-2-3---3------  
|----0----0-------2------  
|----2----2-------0------  
|----0----0--------------
|------------------------  

Riff:3
|----0------------2----2---------2--------0----0----
|----2----2-3-----3----1---------2--------3----2----
|----0------------2----2---------0--------0----0----
|----2------------0----0---------0--------2----2----
|----0---------------------------2--------0----0----
|--------------------------------3------------------

Riff:4
|----0---0----0---0---0-----0-----0----0----0---0-------
|----0---0----1---0---1-----0-----0----0----1---0-------
|----0---0----0---0---0-----0-----0----0----0---0-------
|----2---3----2---3---2-----2-----2----3----2---2-------
|----2---3----3---3---3-----2-----2----3----3---2-------
|----0---1--------1---------0-----0----1--------0-------
Riff:5
(???????)

Intro:

Riff:1

Won't be the last
Won't be the first

Riff:1

Find a way to where
The sky meets the Earth

Riff:2

It's alright
And all wrong

Riff:3

For me it begins
At the end of the road
We come and go...

Riff:1
00:00 / 00:00
Otros videos de esta canción
Repetir
Otros videos de esta canción
Composición de Eddie Vedder
Colaboración y revisión:
  • Aldren Canuto
1.049 vistas
    • ½ Tono
    • A
    • Bb
    • B
    • C
    • Db
    • D
    • Eb
    • E
    • F
    • F#
    • G
    • Ab
  • Agregar a la lista

    0 comentarios

    Ver todos los comentarios

    ¿Lograste tocar?

    0 Tocaron 0 Aún no

    ¡Graba un video tocando End Of The Road y envíanoslo!

    00:00 / 00:00
    OK