Cifra Club

Ride Into The Sun

The Velvet Underground

Cifrado: Principal (guitarra y guitarra eléctrica)
Selo Cifra Club: esta cifra foi revisada para atender aos critérios oficiais da nossa Equipe de Qualidade.
tono: D
D        A     Bm        A
D        A     Bm        A

00'24
   {D          /A}              {Bm         /Bm    .A}
E|--------10-----14-12-10h12-10-------9---7--------9----7\--|
B|-----10---------------------------------------------------|
G|--11-------11-------------------5/7---7------7/9---9------|
D|----------------------------------------------------------|
A|----------------------------------------------------------|
E|----------------------------------------------------------|

   {G       /A}               {D}
E|------3----------5-----5---------10--------------10-------10--------|
B|--------3----5h7---5h7---5----------10-----10h12----10h12----10h12--|
G|--3h4-----4------------------/11-------11---------------------------|
D|--------------------------------------------------------------------|
A|--------------------------------------------------------------------|
E|--------------------------------------------------------------------|

   {D          /A}              {Bm         /Bm    .A}
E|--------10-----14-12-10h12-10-------9---7--------9----7\--|
B|-----10---------------------------------------------------|
G|--11-------11-------------------7/9---7------7/9---9------|
D|----------------------------------------------------------|
A|----------------------------------------------------------|
E|----------------------------------------------------------|

   {G       /A}               {D}
E|------3----------5-----5---------10------------------------------|
B|--------3----5h7---5h7---5----------10----------10------10-------|
G|--3h4-----4------------------/11-------11--9h11----9h11----9h11--|
D|-----------------------------------------------------------------|
A|-----------------------------------------------------------------|
E|-----------------------------------------------------------------|




* distortion guitar: scale

         4   5   6   7   8   9  10  11  12
1e --|---|---|---|---|---|---|---|---|----|
2B --|---|---|---|---|---|---|---|---|----|
3G --|---|---|---|---|---|---|---|---|----|   ...
4D --|-o-|-o-|---|-o-|---|-o-|---|-o-|-o--|
5A --|---|-o-|---|---|---|---|---|---|----|
6E --|---|---|---|---|---|---|---|---|----|

           12  13  14  15  16  17  18  19
      --|---|---|---|---|---|---|---|---|--|
      --|---|---|---|---|---|---|---|---|--|
...   --|---|---|---|---|---|---|---|---|--|
      --|-o-|---|-o-|---|-o-|-o-|---|-o-|--|
      --|---|---|---|---|---|---|---|---|--|
      --|---|---|---|---|---|---|---|---|--|
Otros videos de esta canción
    80 exhibiciones
      • ½ Tono
      • A
      • Bb
      • B
      • C
      • Db
      • D
      • Eb
      • E
      • F
      • F#
      • G
      • Ab
    • Agregar a la lista

    Afinación de cifrado

    Afinador online

      OK