Cifra Club

Stephanie Says

The Velvet Underground

Cifrado: Principal (guitarra y guitarra eléctrica)
tono: C


Tabbed by: Mads Due Jacobsen
Date: 15/05-07

Form: Intro
      Verse x2
      bridge
      chorus
      intro
      verse x2
      bridge
      chorus
      kontrast
      chorus    
      Outro

Tuning: Standard


INTRO:   c       em       am        g

e|---------8--------7--------5--------3---|
B|-------8--------8--------5--------3-----|
G|-----9--------9--------5--------4-------|  x2
D|--10--------9--------7--------5---------|
A|----------------------------------------|
E|----------------------------------------|

Verse:
                                                    
e|---------8--------7--------5---------8>-|          
B|-------8--------8--------5---------8----|          
G|-----9--------9--------5---------9------|  x2      
D|--10--------9--------7--------10--------|          
A|----------------------------------------|          
E|----------------------------------------|          
                                                     
e|---------8--------7--------5--------5---|          
B|-------8--------8--------5--------5-----|          
G|-----9--------9--------5--------5-------|            
D|--10--------9--------7--------7---------|          
A|----------------------------------------|          
E|----------------------------------------|          
                                                     
e|--------5--------5--------7--------7----|          
B|------6--------6--------8--------8------|          
G|----5--------5--------7--------7--------|          
D|--7--------7--------9--------9----------|          
A|----------------------------------------|          
E|----------------------------------------|         

Bridge:

e|--------7--------7----|          
B|------8--------8------|          
G|----7--------7--------|          
D|--9--------9----------|          
A|----------------------|          
E|----------------------|                                                          

Chorus:

    c   f   c   f   c   f   c   g   c   g
     
e|--0---1---0---1---0---1---0---3---0---3---|          
B|--1---1---1---1---1---1---1---3---1---3---|          
G|--0---2---0---2---0---2---0---4---0---4---|          
D|--2---3---2---3---2---3---2---5---2---5---|          
A|--3---3---3---3---3---3---3---5---3---5---|          
E|--x---1---x---1---x---1---x---3---x---3---|  


Kontrast:

e|--------5--------5--------7--------7----|          
B|------6--------6--------8--------8------|          
G|----5--------5--------7--------7--------|          
D|--7--------7--------9--------9----------|          
A|----------------------------------------|          
E|----------------------------------------|

e|---------8--------7--------5--------8>--|
B|-------8--------8--------5--------8-----|
G|-----9--------9--------5--------9-------|  
D|--10--------9--------7-------10---------|
A|----------------------------------------|
E|----------------------------------------|

e|--------5--------5--------7--------7----|          
B|------6--------6--------8--------8------|          
G|----5--------5--------7--------7--------|          
D|--7--------7--------9--------9----------|          
A|----------------------------------------|          
E|----------------------------------------|

Outro:

e|---------8--------7--------5--------3---|  
B|-------8--------8--------5--------3-----|
G|-----9--------9--------5--------4-------|  
D|--10--------9--------7--------5---------|
A|----------------------------------------|
E|----------------------------------------|

      c

e|----8>----|  
B|----8>----|
G|----9>----|  
D|---10>----|
A|---10>----|
E|----8>----|

END


| /  slide up
| \  slide down
| h  hammer-on
| p  pull-off
| ~  vibrato
| +  harmonic
| x  Mute note
| >  Let ring
===============================================================================
00:00 / 00:00
Otros videos de esta canción
Repetir
Otros videos de esta canción
Composición de Lou Reed
154 vistas
  • Simplificar cifrado
    • ½ Tono
    • A
    • Bb
    • B
    • C
    • Db
    • D
    • Eb
    • E
    • F
    • F#
    • G
    • Ab
  • Agregar a la lista

    0 comentarios

    Ver todos los comentarios

    ¿Lograste tocar?

    0 Tocaron 0 Aún no

    ¡Graba un video tocando Stephanie Says y envíanoslo!

    00:00 / 00:00
    OK