Cifra Club

Me Voy

Julieta Venegas

Cifrado: Principal (guitarra y guitarra eléctrica)
tono: D
[Intro]  D  A  G  A

E|--------------------------------------------|
B|-------------------------7------------------|
G|-----9-11----7-9-----7-9---9----------------|
D|--12------11-----9~-------------------------|
A|--------------------------------------------|
E|--------------------------------------------|

E|--------------------------------------------|
B|--------------------------------------------|
G|-----9-11-12/14-12-11-----------------------|
D|--12------------------9--7------------------|
A|--------------------------------------------|
E|--------------------------------------------|

       D
Porque no
A                 Bm
Supiste entender a mi corazón
      G/A
Lo que había en el
        D             A
Porque no tuviste el valor

             G/A
De ver quien soy
       D                 A
Porque no escuchas lo que esta
             Bm
Tan cerca de ti
                G/A        D
Solo el ruido de afuera y yo
             A          G/A
Que estoy a un lado desaparezco para ti

G         A                  D         G
No voy a llorar y decir que no merezco esto
        G          A          D
Por que es probable que lo merezco pero
        G/A
no lo quiero y por eso
   D
Me voy
     A             Bm
Que lastima pero adiós
        G              D
Me despido de ti y me voy
A                 Bm          G        
Que lastima pero adiós, me despido de ti

( D  A  G  A )
( D  A  G  A )

E|--------------------------------------------|
B|-------------------------7------------------|
G|-----9-11----7-9-----7-9---9----------------|
D|--12------11-----9~-------------------------|
A|--------------------------------------------|
E|--------------------------------------------|

E|--------------------------------------------|
B|--------------------------------------------|
G|-----9-11-12/14-12-11-----------------------|
D|--12------------------9--7------------------|
A|--------------------------------------------|
E|--------------------------------------------|

          D            A         Bm
Por que se que me espera algo mejor
            G/A          D
Alguien que sepa darme amor
             A                 G/A              A
De ese que endulza la sal y hace que salga el sol
D             A
Yo que pensé nunca me iría de ti
        Bm                G/A
Que es amor del bueno de toda la vida
D              A               G/A
Pero hoy entendí que no hay suficiente para los dos

Refrão:
  G         A                  D          G
  No voy a llorar y decir que no merezco esto
        G          A          D
Por que es probable que lo merezco pero
        G/A
no lo quiero y por eso
   D
me voy
     A             Bm
Que lastima pero adiós
        G              D
Me despido de ti y me voy
A                 Bm          G         
Que lastima pero adiós, me despido de ti

(D  A  Bm  G)
(D  A  Bm  G)

E|---------------------------------------|
B|---------------------------------------|
G|-----9-11----7-9-----------------------|
D|--12------11-----9~--11-12-------------|
A|---------------------------10~---------|
E|---------------------------------------|

E|---------------------------------------|
B|---------------------------------------|
G|----9-11-12/14-12-11-------------------|
D|-12------------------9--11-12----------|
A|------------------------------10-------|
E|---------------------------------------|

    D          A          Bm
Me voy, que lastima pero adiós
     G                 D
Me despido de ti y me voy
       A           Bm
Que lastima pero adios
     G                 D
Me despido de ti y me voy
      A             Bm
Que lastima pero adios
     G          
Me despido de ti

      D
Y me voy
        A           Bm
Que lastima pero adios
       G        
Me despido de ti
    D
Me voy
00:00 / 00:00
Otros videos de esta canción
Repetir
Otros videos de esta canción
Composición de Julieta Venegas
Colaboración y revisión:
14.678 exhibiciones
    • ½ Tono
    • A
    • Bb
    • B
    • C
    • Db
    • D
    • Eb
    • E
    • F
    • F#
    • G
    • Ab
  • Agregar a la lista
    00:00 / 00:00
    OK