Cifra Club

Resurrection

Venom

Cifrado: Principal (guitarra y guitarra eléctrica)
Selo Cifra Club: esta cifra foi revisada para atender aos critérios oficiais da nossa Equipe de Qualidade.
tono: F#
\  = slide down
/  = slide up
pm = palm mute

Afinação em C

                1º Arranjo                              repeat 4x
|-------------------------------------------------------------------------------------------------------|
|-------------------------------------------------------------------------------------------------------|
|-----------------------6\---7/---6---------------------------------------------------------------------|
|-------1-1-1-1-1-1-----8\---9/---8------1-1-1-1-1-1----------------------------------------------------|
|-------1-1-1-1-1-1-----6\---7/---6------1-1-1-1-1-1----------------------------------------------------|
|-------1-1-1-1-1-1----------------------1-1-1-1-1-1----------------------------------------------------|
                pm                              pm
                                                        repeat 2x
|-------------------------------------------------------------------------------------------------------|
|-------------------------------------------------------------------------------------------------------|
|------------------6-----------------------------------5------------------------------------------------|
|-------1-1-1------8------1-1-1-1-1-1-1-1-1-1-1-1------7-------1-1-1-1-1-1-1-1-1-1-1-1-----------------|
|-------1-1-1------6------1-1-1-1-1-1-1-1-1-1-1-1------5-------1-1-1-1-1-1-1-1-1-1-1-1-----------------|
|-------1-1-1-------------1-1-1-1-1-1-1-1-1-1-1-1--------------1-1-1-1-1-1-1-1-1-1-1-1-----------------|
          pm                            pm                                      pm
                                                                Volta para o 1º Arranjo
|--------------------------------------------------------------------------------------|
|--------------------------------------------------------------------------------------|
|----------------6-------5------6-----6------6------5----------------------------------|
|-------1\-------8-------7------8-----8------8------7----------------------------------|
|-------1\-------6-------5------6-----6------6------5----------------------------------|
|-------1\-----------------------------------------------------------------------------|
                                                                Volta para o 1º Arranjo e Fim.
|--------------------------------------------------------------------------------------|
|--------------------------------------------------------------------------------------|
|--------------6-------5------4-----2------1-------------------------------------------|
|--------------8-------7------6-----4------3------7-----6----4-----3----2--------------|
|--------------6-------5------4-----2------1------7-----6----4-----3----2--------------|
|-------------------------------------------------7-----6----4-----3----2--------------|


LIES
BODY LANGUANGES FIGHT
FEEL THE RUSH AS YOU DIE
THEM YOUR SOUL COMES ALIVE

IF YOU OPEM YOUR MIND
TO AVOID ALL CONFUSION
CARNAL INSTINCTS UNWIND
ANIMAL RESURRECTION

CRIES
PAIN & PLESURE UNITE
FEEL THE RUSH AS YOU SIRE
THEN YOUR SOUL COMES ALIVE

ALL THE REASONS YOU FIND
WILL BE YOUR CONTRIBUTIONS
METABOLIC DISTORTIONS
SATANAS RESURRECTION

IF YOU OPEM YOU MIND
RESSURECTION
Otros videos de esta canción
    65 exhibiciones
      • ½ Tono
      • A
      • Bb
      • B
      • C
      • Db
      • D
      • Eb
      • E
      • F
      • F#
      • G
      • Ab
    • Agregar a la lista

    Afinação da cifra

    Afinador online

      Ops (: Contenido disponible solo en portugués.
      OK