Cifra Club

Maconha

Ventania

Tablatura: Principal (guitarra)
reproducciones 343
Tono: C
E |-------------------------0----------------
B |-----1-----3-----1-----0---0--------------
G |---2-----4-----2-----1-------1------------
D |------------------------------------------
A |-0----------------------------------------
E |-------3-----1-----0----------------------

(intro) ( Am  G  F  E )4x
(1x e 2x - só toca o violão - 3x e 4x junto com Ô ô ô ô ô ô)

Ô ô ô ô ô ô ô ô ô

          Am                                  G
Quantas noites sem dormir olhando da minha janela?
                            F
Luzes da cidade, vejo pensamento
                                    E
Madrugada adentro enquanto muitos dormem

          Am                                G
Quantos loucos atearam fogo, aceleraram a mente?
                    F
Viajaram na fumaça louca?
                                     E
Que passando a todos foi de boca em boca?

       Am                                 G
No silêncio sinto esta fumaça me lavar o rosto
                              F
Maquinar meu cérebro fazendo louco
                             E
Me indagando a noite pela lucidez

      Am                                      G
Como posso eu parar na noite pra dar mais um trago?
                             F
Se eu vivo esta lucidez tão louco?
                                      E
Só por mais um pouco eu vou pirar de vez

        Am                                      G
São os olhos de um poeta louco que contempla a noite
                             F
Na palavra certa de um pensamento
                             E
Só por um momento de inspiração

          Am                                  G
Quantas noites sem dormir olhando da minha janela?
                            F
Luzes da cidade, vejo pensamento
                                    E
Madrugada adentro enquanto muitos dormem

(as arcordes dentro dos versos são tocadas em arpejos assim)
    Am           G                         F                         E
E |-------0----|-------3----|-------3----|-------1----|-------1----|-------0----|------|
B |-----1---1--|-----3---3--|-----3---3--|-----1---1--|-----1---1--|-----0---0--|-----0|
G |---2-------2|---4-------4|---4-------4|---2-------2|---2-------2|---1-------1|---1--|
D |------------|------------|------------|------------|------------|------------|------|
A |-0----------|------------|------------|------------|------------|------------|------|
E |------------|-3----------|-3----------|-1----------|-1----------|-0----------|-0----|
Qnts noites...........janela        Luzes.......pensamento  Madrugada.....dormem
Acordes para:
    Colaboración y revision:
    • Luiz Rocha
    • Waldyr Neto

    0 comentarios

    mostrar más comentarios

    ¿Conseguiste tocar?

    41 tocaron 0 aún no

    ¡Graba un vídeo tocando Maconha y envianoslo!

    00:00 / 00:00
    outros vídeos desta música
    repetir qualidade Automático
    Outros vídeos desta música
    00:00 / 00:00
    Automático
    OK