Cifra Club

As Coisas Que Eu Te Disse Ontem

Vera Loca

Cifrado: Principal (guitarra y guitarra eléctrica)
tono: A
[Intro] A  Bm  C#m

E|-------------------------------------------------------------|
B|--------------------3b---------------------------------------|
G|--------2-----------3b-------2-4b-2--4b6-4b6-4b6-r4-2~-------|
D|--------2------2-4~------2h4---------------------------------|
A|-2b3r2--0---/4-------------------------------------------7\--|
E|-------------------------------------------------------9-----|

A
As coisas que eu te disse ontem
              F#m
Valem só até a meia-noite
A
Portanto pense bem meu bem
             F#m
Antes de tirar a roupa
A
Não acredite em horóscopo chinês
        F#m
São só frases soltas
A
E a tua vida é um programa de TV
            F#m
Que eu tô cansado de ver

E|-------------------------------------------------------------|
B|-------------------------------------------------------------|
G|-------------------------------------------------------------|
D|-----2-2h4-2---2h4-2-----------------------------------------|
A|-2/4---------4-------4-2-------------------------------------|
E|-------------------------------------------------------------|

Bm
Compre um jornal
Acenda um cigarro comum
E
Espere os dedos ficarem amarelos
Bm
Porque o teu sorriso já trocou a cor
         E
Desde o dia em que resolveste crescer

A
As coisas que eu te disse hoje
      F#m
Valem só até o meio-dia
A
Portanto pense bem meu bem
         F#m
Antes de botar a roupa
A
Não acredite em horóscopo chinês
        F#m
São só frases soltas
A
E a tua vida é um programa de TV
            F#m
Que eu tô careca de ver

[Refrão]

A   D
Vá    embora
                Bm        F#m    G     F#m
E os momentos bons se foram u u u, u u u u
00:00 / 00:00
Otros videos de esta canción
Repetir
Otros videos de esta canción
Composición de Fabrício Beck / Mumu
Colaboración y revisión:
  • Luiz Antônio
  • Thaddeus Dentrant
89 vistas
    • ½ Tono
    • A
    • Bb
    • B
    • C
    • Db
    • D
    • Eb
    • E
    • F
    • F#
    • G
    • Ab
  • Agregar a la lista

    0 comentarios

    Ver todos los comentarios

    ¿Lograste tocar?

    2 Tocaron 0 Aún no

    ¡Graba un video tocando As Coisas Que Eu Te Disse Ontem y envíanoslo!

    00:00 / 00:00
    OK