Cifra Club

Dentro Sharon

Verdena

Cifrado: Principal (guitarra y guitarra eléctrica)
Selo Cifra Club: esta cifra foi revisada para atender aos critérios oficiais da nossa Equipe de Qualidade.
tono: G
  D              Bb             D             Bb
E|--------------------------------------------------------------|
B|--------------------------------------------------------------|
G|-----5/7-7/8-8---------------------5/7-7/8-8------------------|
D|-0-0------------8-8-8--8-8-8\7-0-0-----------8-8-8-8-8-8-8/10-|

          1.tremi un po'____             e non è facile____
          2.già da un po'___             sono agli ordini__


  D             Bb              D             Bb
          1.urlare nei rumori tuoi          per te
          2.i tuoi occhi su di me          oh no

(il basso continua uguale)
  D                Bb                 D                Bb
E|----------------------------------------------------------------------|
B|----------------------------------------------------------------------|
G|-----7/9-9/10-10-------------------------7/9-9/10-10------------------|
D|------------------8-8-10-10-10-8-8\7-0-0--------------8-8-10-10-10-8--|
A|-----5/7-7/8--8---8-8-8--8--8--8-8\7-0-0-5/7-7/8--8---8-8-8--8--8--8--|
E|-0-0--------------8-8-8--8--8--8-8\7-0-0--------------8-8-8--8--8--8--|

        1.dentro sharon____                    nell'immagine____
        2.dentro sharon____                    nell'immagine____


  D               Bb                 D                Bb
           1.perdo spesso un po' di me             in te
           2.fuori il mondo grida e qui           io e te


[rit]

  G                           F/Bb
  w/distortion
E|---------------------------------------------------------------------------|
B|---------------------------------------------------------------------------|
G|---------------------------------------------------------------------------|
D|-5-------5--5-5-5------------10--10-10-10-10-10-10-10-10-10-10-10-10-10-10-|
A|-5-------5--5-5-5------------8---8--8--8--8--8--8--8--8--8--8--8--8--8--8--|
E|-5-------5--5-5-5-/17--17-17-8---8--8--8--8--8--8--8--8--8--8--8--8--8--8--|

                                         ebbene       posso          insiste_

  D/G     G                   Bb              C
E|------------------------------------------------------------------|
B|------------------------------------------------------------------|
G|------------------------------------------------------------------|
D|-7-------5--5-5-5------------8-8-8-8-8-8-8-8-10-10-10-10-10-10-10-|
A|-5-------5--5-5-5------------8-8-8-8-8-8-8-8-10-10-10-10-10-10-10-|
E|-5-------5--5-5-5-/17--17-17-8-8-8-8-8-8-8-8-10-10-10-10-10-10-10-|

  re______                          confusio__________ne

[riff]

  D               Bb                 D                Bb
  w\distortion
E|------------------------------------------------------------------------|
B|------------------------------------------------------------------------|
G|-----7/9-9/10-10------------------------7/10\9-9\7-7--------------------|
D|-0-0-------------8-8-10-10-10-8-8-8-0-0--------------8(8-10-10-10-----)-|
A|-0-0-5/7-7/8--8--8-8-8--8--8--8-8-8-0-0-5/8-\7-7\5-5-8(8-8--8--8------)-|
E|-0-0-------------8-8-8--8--8--8-8-8-0-0--------------8(8-8--8--8--/16\)-|
                                           (tra parentesi solo la prima volta)
                                                       2 volte


poi di nuovo:
#verso come prima, la chitarra suona da subito
#rit   come prima
#riff  come prima


[bridge]

  D    C  D             C  D     C/F            F/Bb
  w\distortion
E|------------------------------------------------------------------|
B|------------------------------------------------------------------|
G|------------------------------------------------------------------|
D|-0-0--10h12-12-0-0--0--10h12-12-5-5-5-5-3-3-3-/10--10-10-10-8-8-8-|
A|-0-0--10h12-12-0-0--0--10h12-12-3-3-3-3-3-3-3-/8---8--8--8--8-8-8-|
E|-0-0--10h12-12-0-0--0--10h12-12-3-3-3-3-3-3-3-/8---8--8--8--8-8-8-|

                                                   2 volte
                                               (nei live anche più volte)

  D    C  D             C  D     C/F             F/Bb
       sha____           sha_____ron_______________

  D    C  D             C  D     C/F             F/Bb
       Sha____            sha____ron______________________________________


  D                               C/F            F/Bb
  w\distortion & tremolo (Alberto usa il Tremolo Boss)
E|------------------------------------------------------------------------|
B|------------------------------------------------------------------------|
G|------------------------------------------------------------------------|
D|-0----------------------------------------------------------------------|
A|-0----------------------------------------------------------------------|
E|-0----------------------------------------------------------------------|
*volumi del tremolo:rate 2/3, wave e depth max

          sha____        sha_____ron_______________


  D                               C/F             F/Bb
           sha____        sha____ron______________________________________

  D                                      Bb
  (senza tremolo)
E|-----------------------------------------------------------|
B|-----------------------------------------------------------|
G|-----7/9-9/10-10-------------------------------------------|
D|-0-0------------------------------------8-8-10-10-10-8-8-8-|
A|-0-0-5/7-7/8--8-------------------------8-8-8--8--8--8-8-8-|
E|-0-0------------------------------------8-8-8--8--8--8-8-8-|

                  "ragazzi che solletico"

  D                Bb
E|--------------------------------------|
B|--------------------------------------|
G|-----7/10\9-9\7-7---------------------|
D|-0-0--------------8-8-10-10-10-8------|
A|-0-0-5/8-\7-7\5-5-8-8-8--8--8--8------|
E|-0-0--------------8-8-8--8--8--8-/12\-|


#rit
come prima


[finale]

Una chitarra continua col Riff
E|---------------------------------------------------------------------------|
B|---------------------------------------------------------------------------|
G|----14\12-12/14-14/15\--------------------14\12-12\10-10\9\----------------|
D|-0-0------------------8-8-10-10-10-8-8-0-0------------------8-8-10-10-10-8-|
A|-0-012\10-10/12-12/13\8-8-8--8--8--8-8-0-012\10-10\8--8-\7\-8-8-8--8--8--8-|
E|-0-0------------------8-8-8--8--8--8-8-0-0------------------8-8-8--8--8--8-|
                                                                  confusione
Otros videos de esta canción
    10 exhibiciones
      • ½ Tono
      • A
      • Bb
      • B
      • C
      • Db
      • D
      • Eb
      • E
      • F
      • F#
      • G
      • Ab
    • Agregar a la lista

    Afinação da cifra

    Afinador online

      Ops (: Contenido disponible solo en portugués.
      OK