Cifra Club

O Modelo Adequado

Versalle

Cifrado: Principal (guitarra y guitarra eléctrica)
tono: F
Intro: Dm
C5 B5  Dm
Dm         Bb    C     Dm
São tantas intenções veladas
            Bb     C      Dm
Impulsos castrados pela razão
          Bb      C   Dm
Fazer a escolha apropriada
            Bb    C     Dm
Valer-se de dissimulação
Dm
E agora o que fazer?
Preciso impressionar
Bb                      C
Sem deixar transparecer a verdade
Dm
O espelho, o fundo falso
A estratégia pra se aproximar
Bb                            C
A tentativa de ser convincente
             Bb           C
Condescendente, conveniente, articulado
    Dm
O modelo adequado
F          Am           Dm
Eu sou de plástico, e você?
Eu sou o que eu devo ser
Eu sou de plástico, e você?
Eu sou o que eu devo ser


C5 B5  Dm
Dm
Dm       Bb  C   Dm            Bb
Conduta estereotipada é a garantia 
C         Dm
da aceitação
           Bb    C   Dm
Ações e atitudes rotuladas
           Bb C  Dm
Produto da alienação

Dm
E agora o que fazer?
Preciso impressionar
Bb                      C
Sem deixar transparecer a verdade
Dm
O espelho, o fundo falso
A estratégia pra se aproximar
Bb                            C
A tentativa de ser convincente
             Bb           C
Condescendente, conveniente, articulado
    Dm
O modelo adequado
F          Am           Dm
Eu sou de plástico, e você?
Eu sou o que eu devo ser
Eu sou de plástico, e você?
Eu sou o que eu devo ser




            C
Pra ser normal,
          Bb
Pra ser legal
             Dm
Pra ser igual
            C
Pra ser normal
          Bb
Pra ser legal
     Dm
Igual


Contrabaixo
E|---------------------------------------------------------------------------------------|
B|---------------------------------------------------------------------------------------|
G|---10--10--10---10-------------------------7---7---7---7---7---7----9---9--------------|
D|----------------------------7---7---7---7----------------------------------------------|
A|-8---8----8-----8---------------------------5--5---5---5---5---5----7---7--------------|
E|--------------------------5---5---5---5------------------------------------------------|

Riff 1
E|-----------------------------|
B|---10-10-8-10-8--------------|   (3x)                 
G|---------------------10------|                         

Riff 2
E|-----------------------------|
B|-13---11-10-11-10-9----------|  (1x e volta pro Riff 1)
G|-----------------------------|
Composición de Rômulo Pacifico
Colaboración y revisión:
  • Pheterson Hammond
33 vistas
    • ½ Tono
    • A
    • Bb
    • B
    • C
    • Db
    • D
    • Eb
    • E
    • F
    • F#
    • G
    • Ab
  • Agregar a la lista

    0 comentarios

    Ver todos los comentarios

    ¿Lograste tocar?

    4 Tocaron 0 Aún no

    ¡Graba un video tocando O Modelo Adequado y envíanoslo!

    00:00 / 00:00
    Outros vídeos desta música
    Repetir Calidad Automático
    Outros vídeos desta música
    00:00 / 00:00
    Automático
    OK