Cifra Club

Verde Mansidão

Versalle

Tab de bajo: Principal
Riff 1:

G|------------------------------------------------------------------------------
D|------------------------------------------------------------------------------
A|---5-555--------5-555--------5-555--------------------------------------------
E|---------3-333---------3-333-------3-333--------------------------------------
RIFF 2 :

G|------------------------------------------------------------------------------
D|------------------------------------------------------------------------------
A|----5-555----------3-3-3-3-3-3-3-3--4-4-4-4-4-4-4-4---------------------------
E|-----------3-333--------------------------------------------------------------
RIFF 3:

G|------------------------------------------------------------------------------
D|------------------------------------------------------------------------------
A|----5--555-------------------------3-4----5-555----------------3-4----------
E|-------------5--555----3--333------------------5-555--3-333---------------

RIFF 4:


D|------------------------------------------------12-12-12-12-12-12-12
A|-----3-3-3-3-3-3-3/--12-12-12-12-12-12-12-12-12----------------------10-10-10-10-10-10-10-10




RIFF 5 :


A|------5---7---8----55
E|---------------------

RIFF 6 :


A|-----5--555555---------------------5-----
E|---------------5--555555----3--5-6---6-5-



  RIFF 1 E RIFF 2:        


Vai, você só me faz lembrar do que não aconteceu e do que não existiu

         RIFF 3:
E ela me disse ''o amor vencerá''
                                             RIFF 5:
As águas do mar que teimam em bater em mim, em nosso lar
RIFF 4:
Aproveita e não se esqueça
    
Apague a luz do corredor que liga o nosso coração

RIFF 1 E 2 :
Você só me faz lembrar do que não aconteceu e do que não existiu.

Vai, deixa tudo pra depois, esqueceu de avisar o dia em que vai chegar

     RIFF 3
E ela me disse ''o amor vencerá''
  
As águas do mar que teimam em bater em mim
          
E ela me disse ''o amor vencerá''
                                             RIFF 5:
As águas do mar que teimam em bater em mim, em nosso lar

RIFF 6:
Verde mansidão, 

verde mansidão

       RIFF 3 SO Q COM AS NOTAS NAS CORDAS RÉ E SOL
E ela me disse ''o amor vencerá'', me disse

        RIFF 3
E ela me disse ''o amor vencerá''

As águas do mar que teimam em bater em mim

         
E ela me disse ''o amor vencerá''
      RIFF 5:
As águas do mar que teimam em bater em mim, em nosso lar

RIFF 6 :
Verde mansidão, verde mansidão
Composición de Criston Lucas
Colaboración y revisión:
  • alan barcelos

0 comentarios

Ver todos los comentarios

¿Lograste tocar?

0 Tocaron 0 Aún no

¡Graba un video tocando Verde Mansidão y envíanoslo!

00:00 / 00:00
Outros vídeos desta música
Repetir Calidad Automático
Outros vídeos desta música
00:00 / 00:00
Automático
OK