Cifra Club

Bohemio De Aficion

Vicente Fernández

Cifrado: Principal (guitarra y guitarra eléctrica)
Selo Cifra Club: esta cifra foi revisada para atender aos critérios oficiais da nossa Equipe de Qualidade.
tono: E
Intro: B7 E B7 E 
 
-7-9--7-6-7-11-9--11-9--11-9--7-6-9--7-6-7-6-7-6-7-9--7-5-4-5-4-5 
-9-10-9-8-9-12-10-12-10-12-10-9-7-10-9-7-9-7-9-8-8-10-9-7-6-7-6-7 
----------------------------------------------------------------- 
----------------------------------------------------------------- 
----------------------------------------------------------------- 
----------------------------------------------------------------- 
 
(   1ra vez   ) (2da vez) 
-7-9--7-6-7-6-7----7-4------------------------------------ 
-9-10-9-8-9-8-9----9-5------------------------------------ 
---------------------------------------------------------- 
---------------------------------------------------------- 
---------------------------------------------------------- 
---------------------------------------------------------- 
 
E                                F#m 
Alejate de mi no quiero que me quieras 
               B7                E 
yo soy otoño gris y tu eres primavera 
                       E7           A 
tu llevas en tu ser pureza de a de veras 
   E             B7               E 
en cambio yo me pierdo por cualquiera 
 
                               F#m 
alejate de mi yo en nada te convengo 
               B7                   E 
mi mundo de ilucion es todo lo que tengo 
                       E7          A 
infiel en el amor lo traigo de abolengo 
    E          B7             E 
rompiendo corazones me entretengo 
 
               B7                    E 
yo todo lo que tengo lo doy por las damas 
                B7                E 
y nunca me entretengo a ver si me aman  
                E7                 A 
les doy mi corazon tan solo una semana 
                E                  B7 
y luego sin rencores dejo que se alejen  
              E 
si les da la gana 
 
              B7                 E 
me quito la camisa por un buen amigo 
              B7                E 
hoy vivo millonario mañana mendigo 
                      E7           A 
mi dicha o mi dolor a nadie se lo digo 
               E                   B7 
por eso nadie sabe cuando estoy gozando  
                 E   A 
cuando estoy herido 
              E                    B7 
por eso nadie sabe cuando estoy gozando  
               E 
cuando estoy herido 
 
                                  F#m 
bohemio de aficion amigo de las farras  
             B7                E 
de noche mi timon navega sin amarras 
                        E7               A 
el antro de lo peor me atrapa entre sus garras 
        E             B7             E 
si hay vino si hay mujeres si hay guitarras
Otros videos de esta canción
    2.564 exhibiciones
      • ½ Tono
      • A
      • Bb
      • B
      • C
      • Db
      • D
      • Eb
      • E
      • F
      • F#
      • G
      • Ab
    • Agregar a la lista

    Afinação da cifra

    Afinador online

      Ops (: Contenido disponible solo en portugués.
      OK