Cifra Club

De Que Manera Te Olvido

Vicente Fernández

Cifrado: Principal (guitarra y guitarra eléctrica)
Selo Cifra Club: esta cifra foi revisada para atender aos critérios oficiais da nossa Equipe de Qualidade.
tono: A
-9--12-9--10-9--10-14-12-11-12-10-12-10-12-10-9--10-9-- 
-10-14-10-14-10-12-15-14-13-14-12-14-12-14-12-10-12-10-  
-------------------------------------------------------  
-------------------------------------------------------  
-------------------------------------------------------  
-------------------------------------------------------  
 
------------------------------16-17-  
-10-12-13-12-12-10-10-9-10-17-------  
------------------------------------  
------------------------------------  
------------------------------------  
------------------------------------  
 
  Am  
Veràs que no has cambiado  
 
estoy enamorado  
                   E7  
tal vez igual que ayer  
 
quizàs te comentaron  
 
que a solas me miraron  
              Am  
llorando tu querer.  
 
 
Y no me da verguenza  
                    A7  
que aùn con la experiencia  
               Dm  
que la vida me diò  
                  Am  
a tu amor yo me aferro  
                   E7  
y aunque ya no lo tengo  
                Am    Dm  
no te puedo olviadar.  
                  Am  
a tu amor yo me aferro  
                   E7  
y aunque ya no lo tengo  
                Am     A  
no te puedo olviadar.  
 
                   E7  
De què manera te olvido  
                    A  
de que manera yo entierro  
              E7  
Este cariño maldito  
               D  
que a diario atormenta  
       A  
a mi corazòn.  
 
                 E7  
De que manera te olvido  
                         A  
si te miro en cualquier gente  
                     E7  
y tù no quieres ni verme  
               D    E7  
por que te conviene  
                A  
callar nuestro amor.  
 
-9--12-9--10-9--10-14-12-11-12-10-12-10-12-10-9-10--9--  
-10-14-10-14-10-12-15-14-13-14-12-14-12-14-12-10-12-10-  
-------------------------------------------------------  
-------------------------------------------------------  
-------------------------------------------------------  
-------------------------------------------------------  
 
-17-15-13-12-------12-15-14-13-17------------------  
-------------15-14---------------------------------  
---------------------------------------------------  
---------------------------------------------------  
---------------------------------------------------  
---------------------------------------------------  
 
                   E7  
De què manera te olvido  
                    A  
de que manera yo entierro  
              E7  
Este cariño maldito  
               D  
que a diario atormenta  
       A  
a mi corazòn.  
 
                 E7  
De que manera te olvido  
                         A  
si te miro en cualquier gente  
                     E7  
y tù no quieres ni verme  
               D    E7  
por que te conviene  
                A  
callar nuestro amor.
Otros videos de esta canción
    6.657 exhibiciones
      • ½ Tono
      • A
      • Bb
      • B
      • C
      • Db
      • D
      • Eb
      • E
      • F
      • F#
      • G
      • Ab
    • Agregar a la lista

    Afinação da cifra

    Afinador online

      Ops (: Contenido disponible solo en portugués.
      OK